Acordes de Guitarra » B »los Babasónicos » Putita (Tab)

Putita
los Babasónicos

Letras, Acordes y Tabs para Guitarra, Bajo y Ukulele

  • Intro: C7       Fmaj7
    
    Am                  
    Sin piedad dejas atrás
        C                  Fmaj7   Em
    un séquito de vana idolatría
    Am                
    sos tan espectacular
         C                    Fmaj7  
    que no podes ser mía nada más
    Em
    tenés que ser de todos.
    Am               C
    La piel, los labios
             Fmaj7        Em         
    y donde roza la bambula
    Am         C          Fmaj7
    serán mi prado, mi vergel.
    
    
    
  • Intro: C7 / Fmaj7 / C / Fmaj7 / C
    
    Am                  
    Sin piedad dejas atrás
        C                  Fmaj7   Em
    un séquito de vana idolatría
    Am                
    sos tan espectacular
         C                    Fmaj7  
    que no podes ser mía nada más
    Em
    tenés que ser de todos.
    
    Fmaj7            Em
    La piel, los labios
              Am        C         
    y donde roza la bambula
    Fmaj7       Em         Am
    serán mi prado, mi vergel.
    
    
  • C9
    
    Fmaj7 - Cmaj7 (x2)
    
    
    Am
    Sin piedad dejas atrás
       C                    Fmaj7    Cmaj7
    un séquito de vana idolatría
    
    
    Am
    sos tan espectacular
        C                     Fmaj7
    que no podés ser mía nada más
      Cmaj7           F
    tenés que ser de [todos]     <-- en "todos" cambia el acorde a F
                                     pero entra "La piel..."
    
    
    
  • +---------+----------+
    | Tono    |  EADGBe  |
    +---------+----------+
    | C9      | [x32330] |
    | Am      | [x02210] |
    | C       | [x32010] |
    | Fmaj7   | [x03210] |
    | Em      | [022000] |
    +---------+----------+
    
    ~: vibrato
    
    Riff 1:
    eI--3----3---------3-----------------------3--3-3-3--------3-----3------------I
    BI----1~---1~--3b5---5\1-1~------------3b5----------5\1-1~---3b5---5\1-1~/13--I
    GI-------------------------------5-7-7----------------------------------------I
    DI---------------------------5-7----------------------------------------------I
    
    Riff 2:
    eI--7-7-7-7~--I
    
  • C9
    
    Fmaj7 – Dm – C - C7 (x2)
    
    Am
    Sin piedad dejas atrás
       C                        Fmaj7    C – Bm/E
    un séquito de vana idolatría
    
    Am
    sos tan espectacular
        C                     Fmaj7
    que no podés ser mía nada más
      C          C9          Fmaj7
    tenés que ser de [todos]
    
                        E7
    La piel, los labios
            Am         C
    y donde roza la bambula
    
  • C9 (Repetir)
    
    
    (1º Guitarra Acompaña el punteo con los tonos Indicados Arriba Del punteo...)
    
    
           F         D    Dsus4  D   C            C7            F         D   Dsus4  D   C~
    |--3-3-----3------------3---------------------------3---3-3-------3-------3-------------------|
    |------1-----1---3/5---------5-3-1----------------5---------5/1-1---1-3/5--------5-3-1---1/13-|
    |---------------------------------------5-7-5-7-----------------------------------------------|
    |-----------------------------------5-7-------------------------------------------------------|
    |---------------------------------------------------------------------------------------------|
    |---------------------------------------------------------------------------------------------|
    
    
    
    Am
    Sin piedad dejas atrás
        C                    Fmaj7   Em
    un séquito de vana idolatría
    
  • Babasónicos
    Putita
    
    Esta tablatura la hice para que más o menos
    la sigan con la letra.
    
    Intro
    Acompaña la guitarra
    G|-----------------------------------------------------------|
    D|-3-33-3------------------------------3-33-3----------------|
    A|----------5-55-5----3-33-3---3-33-3-------------5-55-5--3~-|
    E|-----------------------------------------------------------|
    
    Versos
    El bajo empieza con la voz
    
      Sin piedad dejas atras un sequito de vana idolatria...
         Am                         C7                Fmaj7     Em
    G|--------------------------------------------------------------|
    D|--------------------------------------------------------------|
    A|--------------------------------------------8-0-8--------7-0-7|
    E|5-0-5-------------------------8-0-8---------------------------|
     Sos tan espectacular q no podes ser mia nada más
        Am                         C7                Fmaj7
    G|-----------------------------------------------------------|
    D|---------------------------------------
  • +
    ¡Colabora con nosotros!
    Envíanos tu versión de esta canción
  • Tutorial
    HD
    Explicado - Como tocar "Putita impuesto de Fe" de Babasonicos en el bajo tutorial#106
    9:31
  • Tutorial
    HD
    Explicado - Como tocar "Put*t*" de Babasonicos en el bajo tutorial#65
    10:44

Letra de Putita
Sin piedad dejas atrás
un séquito de vana idolatría
sos tan espectacular
que no podes ser mía nada más
tenés que ser de todos.
La piel, los labios
y donde roza la bambula
serán mi prado, mi vergel.
Ya sé
el camino a la fama no significa nada
si no hay una misión
¿cuál es?
hacerte muy putita, probar tu galletita
con toda devoción.
Derramas esa impresión de ser
la acción que encarna la ternura
a tu alrededor no hay humildad,
la venus es caricatura
tenés que ser de todos.
La piel, los labios
y donde roza la bambula
serán mi prado, mi vergel.
Ya sé
el camino a la fama no significa nada
si no hay una misión
¿cuál es?
hacerte muy putita, probar tu galletita
con toda devoción.
ya se
ya se
cual es
ya se
ya se
ya se
cual es...
jeje esta canción es de las mejores de este disco,
saludos desde México¡¡¡¡
a por cierto yo alguna ves no supe asi que les digo como se toca el Fmaj7
y tambien para la parte del coro
para el intro nadamas ponganle ritmo y
el punteo lo mando luego que me salga a la perfeccion




[Putita chords][Putita cifra]
© LaCuerda.net · aviso legal · privacidad · es · en · pt · contacto