Acordes de Guitarra » B »los Babasónicos » El loco (Tab)

El loco
los Babasónicos

Letras, Acordes y Tabs para Guitarra, Bajo y Ukulele

  • E----------------------------------------------------------------------------I
    B----------------------------------------------------------------------------I
    G-------------------------------------------------6-4-------4----------------I
    D------------------2---2-4/6-4----4~--2---2-4/6-4-----6-4-6---6---6-4~-------I
    A-0--0-2-0-2-4---4---4-----------------4-------------------------------------I
    E----------------------------------------------------------------------------I
    
    
    LA                  DO#m
    Soy victima de un dios
                  FA#m
    frágil, temperamental
                FA#m
    que en ves de rezar
         DO#m
    por MI
        SIm 
    se fue a bailar
                               LA
    se fue a la disco de un lugar
    
  •    A          C#m        F#m                C#m           A
    e| -----------------------4-----------4---6-4------------------
    B| ---------------4---4-6---6-6---4-6---6-----6---4-6-4-3h4-2-2
    G| -2-2-4-2-4-6-6--6------------6---------------6--------------
    D| ------------------------------------------------------------
    A| ------------------------------------------------------------
    E| ------------------------------------------------------------
    
    Y ahora empieza con:
    
    A                  C#m
    Soy victima de un dios
                  F#m
    frágil, temperamental
                F#m
    que en ves de rezar
         C#m
    por MI
        Bm 
    se fue a bailar
    
  • 6---|---A---^---|---^---A---^---  Acorde abajo - Apagar -
    5---|---A---|---|---|---A---|---  Acorde arriba - >*Acorde abajo<
    4---|---A---|---|---|---A---|---  Acorde arriba - Apagar -
    3---|---A---|---|---|---A---|---  Acorde arriba
    2---|---A---|---|---|---A---|---
    1---v---A---|---v---|---A---|---
    
    Le puse >*< debido a que al omitir ese paso suena mucho mejor
    la canción, escuchenla y toquenla como les digo y veran que
    en verdad suena igual.
    
        INTRO:
    E--------------------------------------------------------------------I
    B---------------------------------------------7-5-------5------------I
    G-------------------------------------------------6-4-6---6--6-4~-4~-I
    D------------------2---2-4/6-4~-4~----2-4/6-4------------------------I
    A-0--0-2-0-2-4---4---4--------------4--------------------------------I
    E--------------------------------------------------------------------I
    
    E--------------------------------------------------------I
    
  • solo el intro porque en las demas esta mal xD
    
    INTRO...
     |    A    |   C#m   |           F#m            |  C#m  |Bm|
    e-----------------------------------------------------------
    b---------------------------------------7-5-------5---------
    g-------------------------------------------6-4-6---6-6-4-4-
    D---------------------4-6-4-4-----4-6-4---------------------
    L-----------4-4-7-4-7---------4-7---------------------------
    E-5-5-7-5-7-------------------------------------------------
    
    
    perdon para lo que la intentaron sacar de aca , no me di cuenta que
    el final lo coloque todo una cuerda mas abajo  , pero ya esta
    arreglado :)
    
    califiquen! :D
    
    calleja_gabriel_2@hotmail.com
    
    ahora si quedo xD perdon por el errorcito :P
  • ESTE ES EL PUNTEO DE ESTA ROLA. LOS OTROS PUNTEOS QUE HAY AQUI EN EL ATAME;
    
    LA NETA, ESTAN INCOMPLETOS.
     
    
    INTRO...
                                          /esto es rapido/
    e--------------------------------------------------------
    b-------------------------------------7-5------5---------
    g----------------------------------------6-4-6--6--6-4--4
    D---------------2--2-4-6-4-4--2-4-6-4--------------------
    L-0-0-2-0-2-4-4---4----------4---------------------------
    E--------------------------------------------------------
    
    Ahora si, exactamente al finalizar el ultimo punto, comienza con la frase 'Soy victima de ...'
    
    Despues en la parte de 'Como no logro matarme, me regalo...'
    
    va:
    
    e----------------------------
    b----------7-5-----5---------
    g-------------6-4-6-6-6-4-4-4
    D---2-4-6-4------------------
    L--4-------------------------
    E----------------------------
    
    Nota: Esta parte del punteo, inicia exactamente cuando se escucha 
    el 'Como no logro matarme...'
    
    Ahora b
  •   INTRO:
    
      1   2   3   4   |
    
    G|----------------|----------------|----------------|----------------|
    D|----------------|----------2-4-2-|----------2-4-2-|--------4-2-----|
    A|----------------|4---X-4---------|----------------|------------4-2-|
    E|5---X-5---X---5-|----------------|2---X-2---------|2---X-2---------|
    
      1   2   3   4   |
    
    G|----------------|----------------|----------------|----------------|
    D|----------2-4-2-|----------------|----------------|----------------|
    A|----------------|4---X-4---X---4-|2---X-2---X-2-X-|2---X-2---X-2---|
    E|2---X-2---------|----------------|----------------|----------------|
    
    
      VERSOS:
    
      1   2   3   4   |
    
    G|----------------|----------------|----------------|----------------|
    D|----------------|----------2-4-2-|----------2-4-2-|--------4-2-----|__
    A|----------------|4---X-4---------|----------------|------------4-2-|  |
    E|5---X-5---X---5-|----------------|2---X-2---------|2---X-2---------|  |
                                                         
  • Armonica en C (Do)
    
    
    4 , 4 (4) 4 (4) 5 , 5 6 5 6 (6) (7) (6)
    
    5 6 (6) (7) (6) , 6 (6) 6 5
    
    5 (4) 5 (4) , 4 4 (4) 5 (4) 4 (4) 4
    
    
    
    5 5 5 5 5 5 5 5 (5) 5 (5) 6 , 5 6 (6) 6
    
    (5) (5) (5) 5 (4) 4 (4) 3 4
    
    
    
    5 5 6 (7) (6) 6 (6) 6(6)6
    
    5 5 6 (7) 6
    
    
    Aca les dejo 3 partes distintas de la cancion que se van repitiendo. Ustedes mezclenlas
    de acuerdo al tema. Donde hay comas (,) hay que hacer una pequeña pausa.
  • +
    ¡Colabora con nosotros!
    Envíanos tu versión de esta canción

Letra de El loco
Soy victima de un dios
frágil, temperamental
que en ves de rezar
se fue a bailar
se fue a la disco de un lugar
quizo mi disfraz
vivir como un mortal
como no logro, matarme
me regalo, una visión particular
volutas de humo
titilo a su encuentro
siento el fulgor
y quiero entrar
soy victima de un dios
díscolo y muy singular
que a su antojo fiel
me arrebato a mi mujer
y la interno en un lupanar
que él administro
como chulo, un gran señor
y llego hasta el fin, de confundir
su impunidad, se creyó imnisciente
volutas de humo
titilo a su encuentro
siento el fulgor
y quiero entrar
Lo regalado es mío y se acabo
no lo devuelvo
lo regalado es mío y se acabo
no lo devuelvo
lo regalado es mío y se acabo
no lo devuelvo
soy victima de un dios
frágil, temperamental
que en ves de rezar
se fue a bailar a la disco de un lugar.
FIN
Espero que les sirva!!! saludos a todo Rio Gallegos!!
Dedicado a Lucas D'urso y a los desfachatados (Seba, Guido, Martin, Leo)
Cualquier duda o sugerencia, mandenme un mail a fede_schiavo@hotmail.com




[El loco chords][El loco cifra]
© LaCuerda.net · aviso legal · privacidad · es · en · pt · contacto