Acordes de Guitarra » B »los Babasónicos » Asi se habla (Tab)

Asi se habla
los Babasónicos

Letras, Notas, Punteos, Tablaturas y Acordes de Guitarra (Tabs & Chords)

  • Tablatura
        B5  B5  A5     B5  B5  A5  A5  F#5
    e|--------------|-----------------------|
    B|--------------|-----------------------|
    G|--------------|-----------------------| x 4
    D|--4---4---2---|---4---4---2---2-------|
    A|--2---2---0---|---2---2---0---0---4---|
    E|--------------|-------------------2---|
    
    
    
    Verso:
    
        B5  B5  A5     B5  B5  A5  A5  F#5  B5  B5  A5   B5  B5  A5  A5  C#5
    e|-------------|---------------------|------------|---------------------|
    B|-------------|---------------------|------------|---------------------|
    G|-------------|---------------------|------------|---------------------|
    D|-4---4---2---|--4---4---2---2------|-4---4---2--|--4---4---2---2------|
    A|-2---2---0---|--2---2---0---0---4--|-2---2---0--|--2---2---0---0---4--|
    E|-------------|------------------2--|------------|------------------2--|
            Sera      tu educacion        cristiana de fantasma  a todas partes
    
  • +
    ¡Colabora con nosotros!
    Envíanos tu versión de esta canción

Letra de Asi se habla
Verso:
Sera tu educacion cristiana de fantasma a todas partes
sera tu aversion social lo que te aleja de los bares
Estribillo:
vamos quiero una explicacion
Cambio:
Verso:
Sera tu condicion racial o tu lugar de privilegio
sera trabajar cabrón para ganar como un pendejo
Estribillo:
vamos quiero una explicacion
Verso:
sera que mi obra social no me protege de la rabia
sera que me cogieron mal que no me trago la charada
Estribillo:
vamos quiero una explicacion
quiero una explicacion
~~= vibrato
qb= quarter bend = estirar un cuarto tono
hb= half bend = estirar medio tono
fb= full bend = estirar un tono entero
h = hamerring on = martillo
no se como explicarlo si no lo enttienden asi jaja



© LaCuerda.net · Aviso Legal · Privacidad