Acordes de Guitarra » A »Alejandro Fernandez » Abrázame (Tab)

Abrázame
Alejandro Fernandez

Letras, Acordes y Tabs para Guitarra, Bajo y Ukulele

  •      Em                               Am
     Abrazame, y no me digas nada solo abrazame
         D                    G             Am      B7
     me basta tu mirada para comprender que tu te iras.
     
         Em                               Am
     Abrazame, como sio fuera ahora la primera vez
        D                        G 
     como si me quisieras hoy igual que ayer
       Am  B7    Em  E7
     abrazame.
     
        Am              D                       G
     Si tu te vas te olvidaras que un dia hace tiempo ya
             C                       Am
     cuando eramos aun niños me empezaste a amar
                   B7    Am    E7
     y yo te di mi vida y te vas.
     
        Am            D                        G
    
  •   Gm        Cm          F7          Gm     
    abrazame, y no me digas nada, solo abrazame
       Cm         F7         Gm              Cm      D7 
    me basta tu mirada, para comprender, que tu te irás.
      Gm      Cm             F7              Gm   Cm  
    abrazame, como si fuera ahora la primera vez, como si 
          F7           Gm             Cm   D7 
    me quisieras hoy igual que ayer, abrazame.
    
    G7       Cm        F7                       Bb 
    si tu te vas, te olvidarás que un día hace tiempo ya, 
        Gm                         Cm             
    cuando eramos aún niños me empezaste a amar,y yo te dí 
       D7         Gm-G7   Cm           F7       
    mi vida si te vas. Si tu te vas ya nada sera nuestro 
           Bb          Gm                   Cm            
    tu te llevarás, en un solo momento una eternidad me 
                 D7        Gm  
    quedaré sin nada si te vas.
    
    
  • INTRO: Gm-Cm-F-Bb-Cm-D7
    
     Gm                            Cm
    Abrázame, y no me digas nada, solo abrázame
     F                  Bb                  Cm     D7
    me basta tu mirada, para comprender, que tu te irás.
    
      Gm                           Cm              F
    Abrázame, como si fuera ahora, la primera vez como si
                  Bb                  Cm   D7-Gm-G7
    me quisieras hoy igual que ayer, abrázame.
    
     Cm            F                  F7    Bb
    si tu te vas, te olvidarás que un día hace tiempo ya,
     Gm                     Cm                   D7
    cuando eramos aún niños me empezaste a amar,y yo te dí
               Gm-G7
    mi vida si te vas.
    
    Cm           F               F7
    
  •    F#m                              Bm
     Abrazame, y no me digas nada solo abrazame
         E                     Amaj7         Bm     C#7
     me basta tu mirada para comprender que tu te iras.
    
         F#m                             Bm
     Abrazame, como sio fuera ahora la primera vez
       E                        Amaj7
     como si me quisieras hoy igual que ayer
       Bm  C#7 F#7sus4 F#7
     abrazame.
    
        Bm              E                       Amaj7
     Si tu te vas te olvidaras que un dia hace tiempo ya
             Dmaj7                    B 
     cuando eramos aun niños me empezaste a amar
       C#7                    F#m F#7
     y yo te di mi vida y te vas.
    
        Bm            E                       Amaj7
    
  • E----0--7--8----------------8--8--7----7--5----5--3-3-----------------
    B-------------------13------------------------------------------------
    G---------------------------------------------------------------------
    D---------------------------------------------------------------------
    A---------------------------------------------------------------------
    E---------------------------------------------------------------------
    
    
    E----0--7--8-----------------8-8-8-8--7---7--5--5--3-3--0-----7---0-8-7-0-
    B--------------------13-----------------------------------6-5---------
    G---------------------------------------------------------------------
    D---------------------------------------------------------------------
    A---------------------------------------------------------------------
    E---------------------------------------------------------------------
    
    
         Em                               Am
     Abrazame, y no me digas nada solo abrazame
         D                    G             Am      B7
     me basta tu mirada para comprender que tu te iras.
    
  • La afinacion del Bajo es: (Db Gb B E)
    Empezemos!!!
    
      Q=88
     4/4
      Gtr I
      W          Q.   E E E E E   H    E E E E   Q.   E E E E E
    |----------|-2--------------|-2------------|--------2---2----|
    |----------|--------2---2---|------2---2---|-0---------------|
    |----------|----------------|--------------|-----------------|
    |----------|----------------|--------------|-----------------|
    
    
      Q.   E E E E E   H    Q  E E   Q  +S  S E +H       W
    |-0--------------|-5----0--5---|-4--(4)------------|------|
    |--------0---0---|-------------|----------2-(2)----|------|
    |----------------|-------------|-------------------|------|
    |----------------|-------------|-------------------|------|
    
    
      H    +S  S E E E   H    +E  E Q    H    +Q   +S  S E   H    +Q   Q
    |-2----(2)---------|-2----(2)------|-2----(2)--(2)-----|-----------2--|
    |------------------|------------2--|-------------------|-0----(0)-----|
    |--------------7---|---------------|-------------------|--------------|
    |-------
  • Tuning: Standard
    
    Intro:
    G|------------------------------------------------|
    D|--5------5----5--------3----3---------------5---|
    A|-----5-5----5---3--3-3----3----------3--5-------|
    E|------------------------------6--6-6------------|
    
    Verso:
    G|------------------------3---3-2-------|
    D|----5-----5-------5-3-----------------|
    A|--5-----5-----3------------------5----|
    E|--------------------------------------|
    
    G|-------------------------------------------------|
    D|--5------5----5--------3----3---------------5----|
    A|-----5-5----5---3--3-3----3----------3--5-5------|
    E|------------------------------6--6-6-------------|
    
    Coro:
    G|-------------------------------------------------------|
    D|----5--------3----3----3----------------------------5--|
    A|--5---3--3-3----3--------3-5-6--6--5-3--3-------5-5----|
    E|--------------------6----------------------6-5---------|
    
    G|------------------------------------------------------------|
    D|----5--------3----3----3----------------------------5---5---|
    A|--5-
  • +
    ¡Colabora con nosotros!
    Envíanos tu versión de esta canción
  • Tutorial
    como tocar Abrazame
    7:45
  • Tutorial
    HD
    Abrázame Alejandro Fernández Cómo Tocar En Guitarra
    5:34

Letra de Abrázame
Abrazame, y no me digas nada solo abrazame
me basta tu mirada para comprender que tu te iras.

Abrazame, como sio fuera ahora la primera vez
como si me quisieras hoy igual que ayer
abrazame.

Si tu te vas te olvidaras que un dia hace tiempo ya
cuando eramos aun niños me empezaste a amar
y yo te di mi vida y te vas.

Si tu te vas ya nada sera nuestro tu te llevaras
en un solo momento una eternidad
me quedare sin nada si tu te vas.

Abrazame y no me digas nada solo abrazame
no quiero que te vayas pero se muy bien
que tu te iras.

Abrazame, como si fuera ahor la primera vez
como si me quisieras hoy igual que ayer
abrazame.

Si tu te vas me quedara el silencio para conversar
la sombra de tu cuerpo y la soledad
seran mis compañeras si te vas.

Si tu te vas se ira contigo el tiempo y mi mejor edad
te seguire queriendo cada dia mas,
te esperare que vuelvas si tu te vas.




[Abrázame chords][Abrázame cifra]
© LaCuerda.net · aviso legal · privacidad · es · en · pt · contacto