Acordes de Guitarra » A »Alejandro Fernandez » Mátalas (Tab)

Mátalas
Alejandro Fernandez

Letras, Acordes y Tabs para Guitarra, Bajo y Ukulele

  • Intro : E , B , F# , B , B7 , E , B , F# ...
    
      B
    Amigo que te pasa estas llorando 
                               F#
    seguro es por desdenes de mujeres
    
    no hay golpe mas mortal para los hombres 
                                         B
    que el llanto y el desprecio de esos seres
    
    
    B
    amigo voy a darte un buen consejo 
           B7                     E
    si quieres disfrutar de sus placeres 
        F#                           B  
    consigue una pistola si es que quieres 
                             F#
    o comprate una daga si prefieres
    
  •  A
    Amigo que te pasa estas llorando
                               E7
    seguro es por desdenes de mujeres
    
    no hay golpe mas mortal para los hombres 
                                          A
    que el llanto y el desprecio de esos seres
    
     A
    Amigo voy a darte un buen consejo
         A7                         D
    si quieres disfrutar de sus placeres
                   E7                 A
    consigue una pistola si es que quieres
                               E7
    o comprate una daga si prefieres
                             A      A7
    y vuelvete asesino de mujeres
    
    
  • e|--------------------------------|---------------------------------|
    B|-12-14-16-17-12----12-17-12---12|---------------------------------|
    G|----------------13----------13--|-11-13-15-16-11---11-16-11--11-16|
    D|--------------------------------|----------------13--------13-----|
      E        F#                   B         B7
    
    e|----------------------------|-----------12-11-10-9-----|
    B|------13-14-14--------------|---------12----------12-11|
    G|-15-16--------16-16-15-15-13|-13-12-11-----------------|
    D|----------------------------|--------------------------|
      E                             B
    
    e|------------9-9-9-9-12|---9-12-------7-7-7-7-12|
    B|-10-10-10-10----------|-10----9-9-9-9----------|
    G|----------------------|------------------------|
    D|----------------------|------------------------|
              F#          E           D#m          F#  B
    
    e|--7-12--14-14-14-14-12-12-12-12-11-11-11-11--11--11--|
    B|-9---------------------------------------------14--12|
    
  • +
    ¡Colabora con nosotros!
    Envíanos tu versión de esta canción
  • Tutorial
    HD
    Como tocar MATALAS en Guitarra
    1:12

Letra de Mátalas
Amigo que te pasa estas llorando
seguro es por desdenes de mujeres
no hay golpe mas mortal para los hombres
que el llanto y el desprecio de esos seres
amigo voy a darte un buen consejo
si quieres disfrutar de sus placeres
consigue una pistola si es que quieres
o comprate una daga si prefieres
y vuelvete ASESINO DE MUJERES !
Matalas con una sobredosis de ternura ...
Asfixialas con besos y dulzuras ...
contagialas de todas tus locuras
Matalas con flores con canciones no les falles
que no hay una mujer en este mundo
que pueda resistirse a los detalles
Despiertalas con una serenata
sin ser un dia especial llevale flores
no importa si es la peor de las ingratas
que tu no eres un santo sin errores
amigo voy a darte un buen consejo ... ( se repite toda )




[Mátalas chords][Mátalas cifra]
© LaCuerda.net · aviso legal · privacidad · es · en · pt · contacto