Tablatura para Bajo de Alejandro Fernandez: Abrázame
Conexión · Inscripción
Letras y Acordes
Pantalla Completa
Imprimir
Versión Texto
Añadir Favorito
Otras Versiones

Mostrar Diagramas
Desfile Automático
Formato del Texto


Abrázame(BAJ)

Alejandro Fernandez

calidad:
afer0017
AUTOR: Rafael Ferro Garcia, Julio Iglesias
ALBUM: Muy Dentro de Mi Corazon
Enviado por omar
Tuning: Standard

Intro:
G|------------------------------------------------|
D|--5------5----5--------3----3---------------5---|
A|-----5-5----5---3--3-3----3----------3--5-------|
E|------------------------------6--6-6------------|

Verso:
G|------------------------3---3-2-------|
D|----5-----5-------5-3-----------------|
A|--5-----5-----3------------------5----|
E|--------------------------------------|

G|-------------------------------------------------|
D|--5------5----5--------3----3---------------5----|
A|-----5-5----5---3--3-3----3----------3--5-5------|
E|------------------------------6--6-6-------------|

Coro:
G|-------------------------------------------------------|
D|----5--------3----3----3----------------------------5--|
A|--5---3--3-3----3--------3-5-6--6--5-3--3-------5-5----|
E|--------------------6----------------------6-5---------|

G|------------------------------------------------------------|
D|----5--------3----3----3----------------------------5---5---|
A|--5---3--3-3----3--------3-5-6--6--5-3--3-------5-5---------|
E|--------------------6----------------------6-5--------------|

Verso:
G|-------------------------------------------------|
D|--5------5----5--------3----3---------------5----|
A|-----5-5----5---3--3-3----3----------3--5-5------|
E|------------------------------6--6-6-------------|

G|----------------------------------------------|
D|------5----5--------3----3---------------5----|
A|--5-5----5---3--3-3----3----------3--5-5------|
E|---------------------------6--6-6-------------|

Puente:
G|----------------------------------------------|
D|------5----5--------3----3---------------5----|
A|--5-5----5---3--3-3----3----------3--5-5------|
E|---------------------------6--6-6-------------|

Coro:
G|-------------------------------------------------------|
D|----5--------3----3----3----------------------------5--|
A|--5---3--3-3----3--------3-5-6--6--5-3--3-------5-5----|
E|--------------------6----------------------6-5---------|

G|--------------------------------------------------------|
D|----5--------3----3----3----------------------------5---|
A|--5---3--3-3----3--------3-5-6--6--5-3--3-------5-5-----|
E|--------------------6----------------------6-5----------|

Outro:
G|----------------------------------------|
D|----5------5----------------------------|
A|--5------5-----5------------------------|
E|-----------------6---5--3---------------|


==================================================================

Gracias por sus comentarios XD


==================================================================
Este fichero es trabajo propio de su transcriptor y representa su interpretación personal de la canción. El material contenido en esta página es
para exclusivo uso privado, por lo que se prohibe su reproducción o retransmisión, así como su uso para fines comerciales.

© LaCuerda.net · Aviso Legal · Privacidad