Tablatura para Guitarra de Alejandro Fernandez: Abrázame
Conexión · Inscripción
Letras y Acordes
Pantalla Completa
Imprimir
Versión Texto
Añadir Favorito
Otras Versiones

Mostrar Diagramas
Desfile Automático
Manipular Acordes
Formato del Texto


Abrázame(TAB)

Alejandro Fernandez

calidad:
afer0015
AUTOR: Rafael Ferro Garcia, Julio Iglesias
ALBUM: Muy Dentro de Mi Corazon
Enviado por elian
Este punteo inicial simula el intro de la cancion. esta muy facil
espero que les guste. esta es mi primera cancion

E----0--7--8----------------8--8--7----7--5----5--3-3-----------------
B-------------------13------------------------------------------------
G---------------------------------------------------------------------
D---------------------------------------------------------------------
A---------------------------------------------------------------------
E---------------------------------------------------------------------


E----0--7--8-----------------8-8-8-8--7---7--5--5--3-3--0-----7---0-8-7-0-
B--------------------13-----------------------------------6-5---------
G---------------------------------------------------------------------
D---------------------------------------------------------------------
A---------------------------------------------------------------------
E---------------------------------------------------------------------


Em Am Abrazame, y no me digas nada solo abrazame
D G Am B7 me basta tu mirada para comprender que tu te iras.
Em Am Abrazame, como sio fuera ahora la primera vez
D G como si me quisieras hoy igual que ayer
Am B7 Em E7 abrazame.
Am D G Si tu te vas te olvidaras que un dia hace tiempo ya
C Am cuando eramos aun niños me empezaste a amar
B7 Am E7 y yo te di mi vida y te vas.
Am D G Si tu te vas ya nada sera nuestro tu te llevaras
C Am en un solo momento una eternidad
B7 Am me quedare sin nada si tu te vas.
Em Am Abrazame y no me digas nada solo abrazame
D G no quiero que te vayas pero se muy bien
Am B7 que tu te iras.
Em Am Abrazame, como si fuera ahor la primera vez
D G como si me quisieras hoy igual que ayer
Am B7 Em E7 abrazame.
Am D G Si tu te vas me quedara el silencio para conversar
C Am la sombra de tu cuerpo y la soledad
B7 Am E7 seran mis compañeras si te vas.
Am D G Si tu te vas se ira contigo el tiempo y mi mejor edad
C Am te seguire queriendo cada dia mas,
B7 Am te esperare que vuelvas si tu te vas.
Este fichero es trabajo propio de su transcriptor y representa su interpretación personal de la canción. El material contenido en esta página es
para exclusivo uso privado, por lo que se prohibe su reproducción o retransmisión, así como su uso para fines comerciales.

© LaCuerda.net · Aviso Legal · Privacidad