Acordes de Guitarra » Z »Zurdok Movimiento » Pared (Tab)

Pared
Zurdok Movimiento

Letras, Acordes y Tabs para Guitarra, Bajo y Ukulele

  • -------------------------
    
    verso
    
    e--------------------------------------
    b----8---8---8--------7----------------
    g--------------------------------------
    D--8---8---8---8--7-7------------------
    A--------------------------------------
    E--------------------------------------
    
    El verso es apoyado por un G5.
    
    
    coro
    
    G   A#    A     G
    Lo bueno un reflejo
    
    G   A#   A    G
    
  •  SOL
    --------------------------
    ----8------------------7--
    ---------7---------7------
    --5---55---5-5-7-8---8----
    --------------------------
    --------------------------
    
           CORO
     SOL LA# LA SOL
    --------------------------/10v--
    ----------8-10-10/11-10-8-------
    --7-5---7-----------------------
    ------8-------------------------
    --------------------------------
    --------------------------------
    
    --10-------------------/10v--
    -------8-10-10/11-10-8-------
    -----7-----------------------
    
  • +
    ¡Colabora con nosotros!
    Envíanos tu versión de esta canción

Letra de Pared
verso
El verso es apoyado por un G5.
Lo bueno un reflejo
Lo malo un cuchillo
La vida un espejo
Aprieta el gatillo
Correcciones, comentarios, saludos, recetas, etc.
Envialas a: mriscariot@hotmail.com
Visita mi pagina de Zurdok en:
www.geocities.com/SunsetStrip/Mezzanine/7131/
Si alguien sabe el email de zurdok mandenmelo.




[Pared chords][Pared cifra]
© LaCuerda.net · aviso legal · privacidad · es · en · pt · contacto
DINAMICO