Acordes de Guitarra » Z »Zurdok Movimiento » Tropecé (Tab)

Tropecé
Zurdok Movimiento

Letras, Acordes y Tabs para Guitarra, Bajo y Ukulele

  • Quiero darle gracias a mi amigo Alán Madrid, 
    Que es el mejor Guitarrista del Colegio, 
    él fue quién me dijo como eran los tonos de ésta y otras canciones.
    
    
    LA CANCIÓN DICE MAS O MENOS ASÍ: 
    
    (D)Al principio al tro(A)pezar
    yo sab(Bm)ia algo anda(G)ba mal 
    andaba mal(D) desde el instan(A)te 
    desde el instan(Bm)te 
    que lo aprendi(G) a domar.
    
    Después(D) fue alrevéz(A)  
    todo lo (Bm)hacia en un dos por tres(G)
    se desliza(D)ba por la alfom(A)bra
    desespera(Bm)do tal (G)vez.
    x2
    Para que(D) ale(A)gar 
    si sabe(Bm)mos que es ver(G)dad 
    o es ver(D)dad y ya lo (A)se 
    o en ver(Bm)dad me trope(G)cé.
    
    (D)Con el tiempo al trope(A)zar 
    lo increi(Bm)ble se volv(G)ió normal
    se hizo nor(D)mal sin percatar(A)me 
    que cada instan(Bm)te lo tuve que pens(G)ar.
    
    (D)Así pasó tal(A)vez 
    no me pregun(Bm)tes se que (G)tú lo crées
    si quedan ras(D)tros de mi som(A)bra busca en el te(Bm)cho
    y tal (G)vez bus(D)ca en el techo y me (G)ves.
    X2
    Para que(D) ale(A)gar 
    si sab
  • MI         SI    
    Al principio al tropezar
    DO#m           LA
    lo sabía, algo andaba mal
    MI                SI    
    andaba mal desde el instante
    DO#m                         LA
    desde el instante en que la aprendi a domar
    
    MI          SI    
    Después fue al revés
    DO#m                 LA
    todo lo hacía en un 2 por 3
    MI           SI    
    Se deslizaba por la alfombra
    DO#m         LA
    desesperado tal ves
    
    
    MI        SI
    
  • |------------------|
    | TROPECE - ZURDOK |
    |------------------|
    
     E         B
    Al principio al tropezar
     C#m           A
    lo sabía, algo andaba mal
     E                B
    andaba mal desde el instante
     C#m                         A
    desde el instante en que la aprendi a domar
    
     E          B
    Después fue al revés
     C#m                A
    todo lo hacía en un dos por tres
     E           B
    Se deslizaba por la alfombra
     G         F
    
  •     F      C    D     A#      F     C      D    A#
    e----------------------------------------------------
    b----------------------------------------------------
    g----------------------------------------------------
    d--3--3--10-10--0-0---8-8----3--3--10--10--0--0--8-8-
    A--3--3--10-10--0-0---8-8----3--3--10--10--0--0--8-8-
    D--3--3--10-10--0-0---8-8----3--3--10--10--0--0--8-8-
    
    despues de repetir 3 veces el fil 1 sigue esto
       F  C      C#     B    C#    B
    e---------------------------------------
    b---------------------------------------
    g---------------------------------------
    d-3-3-10-10--11-11---9---11-11--9-------
    A-3-3-10-10--11-11---9---11-11--9-------
    D-3-3-10-10--11-11---9---11-11--9-------
    
    
    Coro
    Para que alegar...                                  x2
    
  • Mejor cancion del quinteto Regio!!!!!!!!!!!!!!!!!!!!!!!!!!!!!
    
    
    ***La Guitarra esta afinada en droped D***
    
    Fill 1(intro del piano en guitarra)
                                                 x2
    e-------------------------12--13---------------||----------
    b---------13/15--13~--15----------11---10--13--||----------
    g----10~---------------------------------------||----------
    d----------------------------------------------||----------
    A----------------------------------------------||----------
    D----------------------------------------------||---3/15~--
    
    Verso(Con fill 1 en el fondo)
    
    
    Al principio al tropezar...
                                           x3
    e----------------------------------------
    b----------------------------------------
    g------------5-5-5-5-----------3-3-3-3---
    d--3-3-3-3---5-5-5-5--0-0-0-0--3-3-3-3---
    A--3-3-3-3---3-3-3-3--0-0-0-0--1-1-1-1---
    D--3-3-3-3------------0-0-0-0------------
    
    
    Se deslizaba por la alfombra, desesperado talvez...
    
    e--------
  • ZURDOK
    Tropecé
    
    
     Intro
    G-----------
    D-----------
    A-----------
    D---3/113--
    
    1er VERSO
    G----------------------------------------------
    D----------------------------------------------
    A----------------------------------------------  x3
    D---3-3-3-----10-10-10-----12-12-12-----8-8-8--
    
    G---------------------------------------
    D---------------------------------------
    A---------------------------------------
    D---3-3-3----10-10-10----12-12-12--10---
    
    2do VERSO
    G----------------------------------------------
    D----------------------------------------------
    A----------------------------------------------  x3
    D---4-4-4-----11-11-11-----13-13-13-----9-9-9--
    
    G--------------------------------------
    D--------------------------------------
    A--------------------------------------
    D---4-4-4----11-11-11----12-12-12--10--
    
    
    1er Coro (Para que alegar...)
    G---------------------------------------
    D---------------------------------------
    A--6--6-6-6----------3--3-3-3-----------
    D-----------5--5-5-5---------
  • Zurdok Movimento
    Antena:
    "Tropecé"
    Tabulada por KomKalabaza
    -------------------------
    Esto es la intro de tropecé.
    Lo siguen tocando durante la mayor parte de la cancion.
    
    ____________________________
                   F
                 E
         D     D
           C C            C
                     Bb
                        A
           
    
    F  F
    ____________________________
    
    A la mitad de la cancion vuelve a tocar la introduccion 
    y luego agrega esto:
    
    ____________________________
                   F
                 E   E
      D        D       D
         C   C           C    C
                           Bb
           A             
           
    
    F
    ____________________________
    
    ----------------
    Para los que no sepan las notas con letras, 
    aki estan las equivalencias.
    
    C=DO
    D=RE
    E=MI
    F=FA
    G=SOL
    A=LA
    B=SI
    ----------------
    Correcciones, comentarios, saludos, recetas, etc. 
    Envialas a: mriscariot@hotmail.com
    Visita mi pagina de Zurdok en: 
    www.geocities.com/SunsetStrip/Mezzanine/7131/
    
  • +
    ¡Colabora con nosotros!
    Envíanos tu versión de esta canción






[Tropecé chords][Tropecé cifra]
© LaCuerda.net · aviso legal · privacidad · es · en · pt · contacto