Acordes de Guitarra » Z »Zurdok Movimiento » Si me advertí (Tab)

Si me advertí
Zurdok Movimiento

Letras, Notas, Punteos, Tablaturas y Acordes de Guitarra (Tabs & Chords)

  • Letra y Acordes
                E    Esus2    E       
    si me advertí
        Esus2     Em    Esus2   Em
    que no debí ceder
         Esus2   D    B 
    y asi ya no caer tanto
                 E    Esus2   E
    pero sigo aqui
        Esus2           Em    Esus2  Em
    pensando en que aprendí
          Esus2    D    B
    para poder avanzar juntos
    
    
    B  A  E  G
    
    B         A
    pues que mal   
                  E
    que no lo ves
    
  • Letra y Acordes
     GRACIAS A : DAC zurdokmovimento@hotmail.com  icq.41136011           
                 Gabriel  kollo_T@latinmail.com   icq.52912204 
                
    
    Si me advertí
    
    MI
    Si me advertí 
               MI
    que no debí ceder
             MI-MIm-RE   SI    
    y asi ya no caer tanto
    
    
    MI
    Pero sigo aqui
                  MI
    pensando en que aprendí
                    MI-MIm-RE     SI
    para poder avanzar juntos 
    
  • Letra y Acordes
                E    Esus2    E
    Si me advertí,
        Esus2     Em    Esus2   Em
    que no debí ceder,
         Esus2   D    B
    y así ya no caer, tanto.
    
    Pero sigo aquí,
    pensando en que aprendí,
    para poder avanzar juntos.
    
    B  A  E  G
    
    CORO  (2)
    
    B         A
    Pues que mal
              E
    que no lo ves,
            G                 B
    
  • Tablatura
    SI me advetí 
    
    verso
                E    Esus2    E       
    si me advertí
        Esus2     Em    Esus2   Em
    que no debí ceder
         Esus2   D     B* 
    y asi ya no caer   tanto
                 E    Esus2   E
    pero sigo aqui
        Esus2           Em    Esus2  Em
    pensando en que aprendí
          Esus2    D      B*
    para poder avanzar    juntos
    
    Bridge:
    clean
    
    B*  A*  E  G*
    
  • Tablatura
        E   Esus2 E    Esus2   B     ?    B    ?        A       B
    e-0-0-0--0-0--0-0--0-0----------------------------0-0-0----------
    B-0-0-0--0-0--0-0--0-0---2-2-2--2-2--2-2-2--2-2---2-2-2---2-2-2--
    G-1-1-1--2-2--1-1--2-2---4-4-4--2-2--4-4-4--2-2---2-2-2---4-4-4--
    D-2-2-2--2-2--2-2--2-2---4-4-4--4-4--4-4-4--4-4---2-2-2---4-4-4--
    A-2-2-2--2-2--2-2--2-2---2-2-2--2-2--2-2-2--2-2---0-0-0---2-2-2--
    E-0-0-0--0-0--0-0--0-0-------------------------------------------
    
    
    Antes de coro:
    
    
            B         A           E        G 
    e|-------------0--0-0-x--------------3-3-3---
    B|-------------2--2-2-x--------------3-3-3---
    G|--4--4-x-x---2--2-2-x----1--1-1----0-0-0---
    D|--4--4-x-x---2--2-2-x----2--2-2----0-0-0---
    A|--2--2-x-x---0--0-0-x----2--2-2----2-2-2---
    E|-------------------------0--0-0----3-3-3---
    
    
  • Tablatura
    E
    Si me advertí 
                A
    que no debí ceder
                    D    B    
    y asi ya no caer tanto
    
    E
    Pero sigo aqui
                  A
    pensando en que aprendí
                      D      B
    para poder avanzar juntos 
    
    
    Riff A:
    [Antes del coro]
    
            B            A   E     F#   G 
    e|---------|----------|-----|-----|----|
    
  • Tab p/Bajo
    E|-------------0-0----0--0----x-----------|--0-0----x--------7----------7---7-----5-6-7-7--x-5h7-7--|
      'si me adverti...'                         '......y asi ya no..caer................tanto....'  |       
                                                                                                     |-este arreglo cambia
                                                                                                     |por el de abajo (2da estro)
    Verso 2-.----------------------------------------------------------------------------------------|
    G|--------------------|
    D|---------7h9--------|
    A|-----7h9-----9--5h7-|
    E|--------------------|
      '....juntos...'
    
    -------------------------------------------------------------------------------------------------------------------------
     Coro 1--EL CORO TIENE UN BIEN DE ARREGLOS QUE NO PUDE SACAR, POR EL DISTOR DE LA LIRA, AY ESTAN LOS QUE SI ESCHUCHE
             (O INVENTE JE)---son los que estan entre 
    
    G|-----------------------------------------------------|-------|
    D|---------------0h2-2----0h2----------0------X4-|-------|
    A|--2--2-2-0-000-----------------------0h2-----0-----|--2..--|
    E|-----------------------0-O-----2-3-33----------------|-------|
    
    
  • Tab p/Bajo
    por: Aldher Alejandro Ruelas Ramirez
    
     Mas o menos asi va, si le descubren algun otro detalle aganmelo saber,
    este tab es muy parecido (o igual) a como esta en la cancion.
    Quejas y sugerencias escriban a blackblinder@hotmail.com
    
    Afinacion estandar E A D G
    
    VERSOS:
    
    G-----------------------------------------------|
    D-----------------------------------------------|
    A-----------------------------------------------|
    E--0--4--0-4-0-5--0-4-5-0--0--0-4-0-5--0-4-5-0--|
    
    G-----------------------------------------------|
    D-----------------------------------------------|
    A-----------------------------------------5-----|
    E--0--0-3-0-5--0-3-5-0--0--0-3-0-5--0-3-5-------|
    
    G-----------------------------------------------|
    D-----------------------------------------------|
    A--5-5-5----------------------------------------|
    E---------5-6-7--7-7-7--------------------------|
    
    
    G-----------------------------------------------|
    D-----------------------------------------------|
    A
  • Batería
    1er Verso
      |________________6x_______________|
    C |----------------|----------------|----------------|----------------|
    H |x-x-x-x-x-x-x-x-|x-x-x-x-x-x-x-x-|----------------|----------------|
    S |----o-------o---|----o-------o---|----------------|--------f--ff---|
    F |----------------|----------------|----------------|---------o----oo|
    B |o-o-----o-------|o-o-----o-o-----|----------------|---------o----oo|
    
    Coro
    C |X-----X---------|X-----X---------|X-----X---------|X-----X---------|
    H |--X-X---X-X-X-X-|--X-X---X-X-----|--X-X---X-X-X---|--X-X---X-X-----|
    T1|----------------|----------------|--------------oo|------------d---|
    S |----o-------o---|----o----o--odod|----o----o--o---|----o-----o--oo-|
    B |o--o--o--oo-----|o--o--o---o-----|o--o--o---o-----|o-----o--o------|
    
    C |X-----X---------|X-----X---------|X-----X---------|X-----X---------|
    H |--X-X---X-X-X-X-|--X-X---X-X-----|--X-X---X-X-----|--X-X---X-X-----|
    T1|----------------|------------d---|-------------d--|----------
  • +
    ¡Colabora con nosotros!
    Envíanos tu versión de esta canción

Letra de Si me advertí
Si me advertí
Si me advertí
que no debí ceder
y asi ya no caer tanto
Pero sigo aqui
pensando en que aprendí
para poder avanzar juntos
Pues que mal que no lo ves
a un lado me puedes tener
y sigo aqui pensando en ti
en todo lo que te dí...
Si me advertí
que el error te hace crecer
¿cuántos debo cometer?
dime
Y si no está en mi
qué tan cerca estoy de tí
lo que busques aquí está
¿cuándo?
Pues que mal que no lo ves
a un lado me puedes tener
y sigo aqui pensando en ti
en todo lo que te dí...
y sigo aqui pensando en ti....
Debo ver para saber
que hiciste para seguir
y vivir con el placer
de mentir y mentir



© LaCuerda.net · Aviso Legal · Privacidad