Acordes de Guitarra » Z »Zurdok Movimiento » Abre los Ojos (Tab)

Abre los Ojos
Zurdok Movimiento

Letras, Acordes y Tabs para Guitarra, Bajo y Ukulele

  • Intro       Am
    
    
    Am          F            B5       E5
    Abre la ventana y ve la luz, del sol,
    Am        F          B5
    abre la ventana y mírate,
    C5        D5      F
    abre los ojos bien,
                    D    Am
    abre los ojos bien.
    
    Salte de la casa y mira alre-dedor,
    salte de la casa y búscame,
    abre los ojos bien,
                   D     G   G#
    abre los ojos fíjate bien.
    
    CORO
    
    
  • E------------0---------------0--------------0--------
    B----------------------------------------------------
    G-----------------------------------------------5/2--
    D----------------------------------------------------
    A-0--0-2-3-0------0--0-2-3-0-----0--0-2-3-0----------
    E----------------------------------------------------
    
    
    
    (Antes de tocar cada acorde en seco se hace un punteo al azar sobre el mismo)
    
          A            F      B    Em
    Abre la ventana y ve la luz del sol
          A     F        B
    Abre la ventana y mírate
      C     D        A
    Abre los ojos bien
                        D   A
    Abre los ojos bien.
    
    
  •    B:-----------------------:--------------------------:B         
       G:-----5-----------------:-----5--------------------:G
       D:-----------------------:--------------------------:D
       A:--------------3--------:--------------3-----------:A
       E:--5-----0--5-----5-----:--5-----0--5-----5--------:E
    
    
       GUITARRA 1:
    
       e:-----------------------------------------------------:e
       B:-----------------------------------------------------:B
       G:---10\7----7/4\7-------------------------------------:G
       D:-----------------------------------------------------:D
       A:-----------------------------------------------------:A
       E:-----------------------------------------------------:E
    
       
       GUITARRA 2:
    
          Am-----------------------Dm-------------------------Am
    
  • E----------------------------------------------------
    B----------------------------------------------------
    G-------------------------------------------------
    D----7--77-------------------------------------
    A----7--77------3----------------------------------
    E----5--55--0-5---5-5-------------------------------
    
    
    
    parte 1
    E--------------------------------------------------------------------------------
    B--------------------------------------------------------------------------------
    G----------10-10-XX--44-XX--55-XX---------10-10-XX--44-4/5-----------------------
    D--77--XX--10-10-XX--44-XX--55-XX--55-XX--10-10-XX--44-4/5-----------------------
    A--77--XX--8--8--XX--22-XX--77-XX--55-XX--8--8--XX--22-2/3-----------------------
    E--55--XX--------------------------77-XX-----------------------------------------
    AbRE LA ventana y ve la luz del sol  Abre la ventana y mírate
    
    parte 2
    E------------------------------------------------------------------------------------
    
  • Acordes:     E  A  D  G  B  E
    
    Am           0  0  2  2  1  0             
    A5           5  7  7  X  X  X
    F            X  3  3  2  1  X
    F5           1  3  3  X  X  X
    B7           X  2  1  2  0  2
    E            0  2  2  1  0  0
    E?           X  7  6  9  X  0
    E/G#         4  2  X  4  5  X
    C5           X  3  5  5  X  X
    D5           X  5  7  7  X  X
    G5           3  5  5  X  X  X
    G#5          4  6  6  X  X  X
    
    
    Intro Riff:
    
    GUITARRA 1: (Con un poco de distorsión, y delay)
    e-----------------0--------|
    
  • Abre los ojos - Zurdok
    por Largallagher
    
    *=Tocas rápido las notas señaladas con el asterisco.
    (1)=Solo llegas a este traste, pero no tocas la nota.
    
    Intro: (x4)
    
    G--------------|
    D--------------|
    A-0-0---0-3-0--|
    E-----0--------|
    
    Versos:
    
    'Abre la ventana y...'
    G--------------------------------------------|
    D--------------------------------------------|
    A------------2-2------------3-----------2-2--|
    E--5-5--1-1-------0-0-0-3-5---5-5--1-1-------|
    
    'Abre los ojos bien...'
    G---------------------------------------|
    D---------------------------------------|
    A--3-5----------------1s5--5-5*5-5-5----|
    E------5-5--5-5*5-5s(1)--------------5--|
    
    Al termino del segundo verso haces esto:
    
    G-------------|
    D-------------|
    A-------------|
    E--3--4--5-5--|
               |
               |
       |-------| 
       |
    Coro:
       |
    G------------------------------------------|
    D------------------------------------------|
    A-------7-7-----------s5-5-5-5-0-3-3-3-3-0-|
    E--5-5-------1
  • Bueno, bueno, ya se que el tab se ve largo, pero tuve que poner todas las partes
    de la rola, por que tiene un buen de variaciones, pero en fin, dificil no esta
    ¡¡~Echenle~ ganas!! ~existe esa palabra????
    ~~~~~~~~~~~~~~~~~~~~~~~~~~~~~~~~~~~~~~~~~~~~~~~~~~~~~~~~~~~~~~~~~~~~~~~~~~~
    Intro
    *RIFF 1*
    G|-----------|----------|----------|----------|-----|
    D|-----------|----------|----------|----------|-----|
    A|-0-0~--030-|--0~--030-|--0~--030-|--0~--030-|-0~~-|
    E|------0----|-0---0----|-0---0----|-0---0----|-----|
    
    ~~~~~~~~~~~~~~~~~~~~~~~~~~~~~~~~~~~~~~~~~~~~~~~~~~~~~~~~~~~~~~~~~~~~~~~~~
    Verso 1
    **RIFF 2**
    G|---------------------------|-----------|-------|
    D|---------------------------|-----------|-------|
    A|-0~--------2-------5h7-----|-0~-----2*-|-3*-5*-|*jalas fuerte la cuerda
    E|------1-1-----0-0-----4h5--|----1-1----|-------|
    
    Abre la ventana 
    Y ve la luz del sol
    Abre la ventana
    Y mirate
    
    ~~~~~~~~~~~~~~~~~~~~~~~~~~~~~~~~~~~~~~~~~~~~~~~~~~~~~~~~~~~~~~~~~~~
    Pre-Coro?
  • Zurdok / Abre los Ojos
    
    CC x---------------|----------------|x---------------|----------------|
    HH --x-x-x-x-x-x-x-|x-x-x-x-x-x-x-x-|--x-x-x-x-x-x-x-|x-x-x-x-x-x-----|
    Tm ----------------|----------------|----------------|--------------f-|
    SD ----o----o--o---|----o----o--o---|----o----o--o---|----o----o--f---|
    BD o-o----o--------|o-o----o--------|o-o----o--------|o-o----o-----o-o|
    
    CC x---------------|----------------|
    HH ----------------|--------o~------|
    FT ----------------|------------o---|
    Tm ----------------|-----------o----|
    BD o---------------|1---2---3---4---|
    
    ABRE LA VENTANA Y VE LA LUZ DEL SOL, ABRE LA VENTANA Y MIRAME, ABRE LOS OJOS
    CC x---------------|----------------|----------------|----------------|
    HH --x-x-x-x-x-x-x-|x-x-x-x-x-x-x-x-|x-x-x-x-x-x-x-x-|x-x-x~#-o~--o~--|
    SD ----o-------o---|----o-------o---|----o-------o---|----o---o---o---|
    BD o-o----oo-o-----|o-o----oo-o-----|o-o----oo-o-----|o-o-------------|
    
     BIEN    ABRE LOS OJOS BIEN
    CC x-----
  • +
    ¡Colabora con nosotros!
    Envíanos tu versión de esta canción

Letra de Abre los Ojos
Abre la ventana y ve la luz, del sol,
abre la ventana y mírate,
abre los ojos bien,
abre los ojos bien.
Salte de la casa y mira alre-dedor,
salte de la casa y búscame,
abre los ojos bien,
abre los ojos fíjate bien.
Esta oscuridad,
te puede ahogar,
te quiere matar.
Esta oscuridad,
te puede ahogar,
te quiere olvidar.
Abre los ojos bien,
abre los ojos bien.
Abre los ojos bien,
abre los ojos fíjate bien.




[Abre los Ojos chords][Abre los Ojos cifra]
© LaCuerda.net · aviso legal · privacidad · es · en · pt · contacto