Acordes de Guitarra » Z »Zoe » Soñé (Tab)

Soñé
Zoe

Letras, Acordes y Tabs para Guitarra, Bajo y Ukulele

  • FA#m-SIm-LA-RE
    
    
    FA#m                      SIm
    Vuelvo al tiempo a aquel momento
    
                          LA         RE
    en que mi mundo se paraba, entre tus labios.
    
    FA#m          SIm                     LA
    Solo para revivir y derretirme una vez mas,
    
            RE
    mirando tus ojos negros.
    
    
    FA#m               SIm                     LA
    Tengo ganas de ser aire y me respires para siempre,
    
    RE                            FA#
    
  • E---2/14--14----
    
    el acompañamiento de la guitarra lleva un efecto  wha
    y es punteado ,para que suene funk...
    
     F#m-Bm-A-D
    
    F#m                        Bm   
    Buelvo el tiempo a aquel momento 
    
                            A D 
    en que mi mundo se paraba,entre tus labios..
    
    F#m                   Bm
    Solo para revivir y derretirme una vez mas 
      A          D
    mirando tus ojos negros..
    
    F#m                Bm                       A
    Tengo ganas de ser aire y me respires para siempre,ehhe
    
  •              F#m                         Bm
    e.--------------------------/--------------------------/
    B.--------2-----2-----2-----/--------3-----3-----3-----/
    G.----2-----2-----2-----2---/----4-----4-----4-----4---/
    D.--4---4-----4-----4-----4-/--4---4-----4-----4-----4-/
    A.--------------------------/--------------------------/
    E.--------------------------/--------------------------/
    
                 A                           D
    e./--------------------------/--------------------------.
    B./--------2-----2-----2-----/--------3-----3-----3-----.
    G./----2-----2-----2-----2---/----2-----2-----2-----2---.
    D./--2---2-----2-----2-----2-/--0---0-----0-----0-----0-.
    A./--------------------------/--------------------------.
    E./--------------------------/--------------------------.
    
    
     Estrofa 1
    
     F#m                       Bm
    
  • e|-------2--2--0-3-2p0---------------------------------||
    B|-------2--3--2-3-------------------------------------||
    G|-------2--4--2-3------------------------------------.||
    D|-------4--4--2-0------------------------------------.||
    A|-------4--4--0-0-------------------------------------||varias veces
    E|---0h2-2--2--0---------------------------------------||
    
    a|--------------------------------------------------------|
    b|-----2--2--2----3----3-----3-----2---2--2-----3---3---3-|
    G|---2--2--2----4----4----4------2--2---2-----4--4---4----|
    D|--4-4--4--4--4-4----4----4----2-2--2---2---4-4--4---4---|vrias veces
    A|--------------------------------------------------------|
    E|--------------------------------------------------------|
    verso:
    F#m                    B 
    Vuelvo al tiempo a aquel momento
    
                          A
    en que mi mundo se paraba, entre tus labios.
    
    
  •         F#m        Bm          A          D
    a|-------2----------2----------0----------2-----|
    b|-------2----------3-3p2------2-2p0----3-3-3p0-|
    G|-------2--------4-4-4p2----2-2-2p0-0h2--2-2p0-|  Esto es lo ke
    D|-----4-4-4p2-2h4--4-4p2-0h2--2-2p0------0-----|  hace el piano
    A|-2h4---4-4p2------2----------0----------0-----|  y la guitarra
    E|-------2----------2----------0----------0-----|
    
    
    Guittarra 2:
    intro
    (00:23)
    a|----------------------------------------------------|
    b|--------2--2--2-----3--3--3-----2--2--2-----3--3--3-|
    G|-------2-----------4-----------2-----------2--------|
    D|------4---4--4----4---4--4----2---2--2----0---0--0--|
    A|-----4---4--4----2---2--2----0---0--0----0---0--0---|
    E|----------------------------------------------------|
    
    
    
  • EDITADO: Se corrigieron las notas del coro y el final
    
    Aclaración:
    X: Nota muda
    
    INTRO
    G|-------------------------------------|
    D|-------------------------------------|
    A|7h9-9-9-X-9-X-9-X--7h9-9-9-X-9-X-9-X-|
    E|-------------------------------------|
                                               X2
    G|-------------------------------------|
    D|-------------------------------------|
    A|------------------7h9-9-9-X-9-X-9-X--|
    E|8h9-9-9-X-9-X-9-x--------------------|
    
    VERSO
    
    G|-------------------------------------------------------|
    D|-------------------------------------------------------|
    A|7h9-9-9-X-9-X-9-X--7h9-9-9-X-9-X-9-X-------------------|
    E|-------------------------------------8h9-9-9-X-9-X-9-x-|
    
    (Solo al final del ultimo verso)                            X3
    G|------------------------|
    D|------------------------|
    A|7h9-9-9-X-9-X-9-X-(9/5~)|
    E|------------------------|
    
    CORO
    G|---------------------------(4)----------------------------------------|
    D|---------------------------(4)------
  • +
    ¡Colabora con nosotros!
    Envíanos tu versión de esta canción
  • Tutorial
    HD
    Como tocar SOÑE en guitarra - Zoe [Tutorial Somos Posers]
    4:05
  • Tutorial
    HD
    Como tocar Soñe Unpugged Zoe Tutorial guitarra
    2:42
  • Tutorial
    HD
    Cómo tocar "Soñé" de Zoé en Guitarra Acústica (HD)
    Tutorial
    6:53

Letra de Soñé
el acompañamiento de la guitarra lleva un efecto wha
y es punteado ,para que suene funk...
Buelvo el tiempo a aquel momento
en que mi mundo se paraba,entre tus labios..
mirando tus ojos negros..
Tengo ganas de ser aire y me respires para siempre,ehhe

pues no tengo nada que perder..,
Todo el tiempo estoy pensando en ti
en el brillo del sol ,en un rincon del cielo...
Todo el tiempo estoy pensando en ti en el eco del mar
que retumba en tus ojos de miel
mirando tus ojos negros...
Tengo ganas de ser aire y me respires para siempre,ehee
pues no tengo nada que perder..
Todo el tiempo estoy pensando en ti ,
en el brillo del sol
y las miradas tuyas de miel...
Si te soñeeehh ,si te soñeheee
uuuuna vez maaasss.....
Si te soñeeehh ,si te soñeheee
uuuuna vez maaasss.....
OK, eso es todo creo,ojala y les lata ..
un saludo a todos los de la rondalla del bacho los reyes
y mil felicitaciones a ZOÉ por su tocada en morelia tocaron
muy chido...




[Soñé chords][Soñé cifra]
© LaCuerda.net · aviso legal · privacidad · es · en · pt · contacto