Acordes de Guitarra » Z »Zoe » Labios Rotos (Tab)

Labios Rotos
Zoe

Letras, Acordes y Tabs para Guitarra, Bajo y Ukulele

  • Em G Bm X 3
    
                  Em
    Regalame tu corazón
            G            Bm
    déjame entrar a ese lugar
                    Em
    donde nacen las flores
                Bm
    donde nace el amor
                        Em               G                Bm
    entrégame tus labios rotos los quiero besar los quiero curar
                Em              Bm
    los voy a cuidar con todo mi amor
    
    
    D#m        F#
    Es raro el amor
    D#m        F#
    es raro el amor
    
  •    E5   G5   B5  Em  G  Bm  D#m  F#  B  E  F
    e -x----x----x---0---3--2---6----2---2--0--1-
    B -x----x----x---0---3--3---7----2---4--0--1-
    G -9----x----x---0---4--4---8----3---4--1--2-
    D -9----5----9---2---5--4---8----4---4--2--3-
    A -7----5----9---2---5--2---6----4---2--2--3-
    E -x----3----7---0---3--2---x----2---x--0--1-
    
    
    
    Intro: les pongo las notas como se podrian usar
    
    Em G Bm X3 o E5 G5 B5 (tocan con 2 guitarras se tocan al mismo tiempo)
                  E5
                  Em
    Regalame tu corazón
            G5           B5
            G            Bm
    déjame entrar a ese lugar
                    E5
    
  • Bueno saque el intro de la marimba o piano en guitarra que es
    el mismo que el del climax
    
    Intro
    
    GUITARRA 2
    e|----7---7-----7---7-----7--7-----7--7--7----------------------|
    B|---8---8--8--8---8--8--7--7--7--7--7--------------------------|
    G|--9---9--9--7---7--7--7--7--7--7--7--7------------------------|
    D|--------------------------------------------------------------|por varios
    A|--------------------------------------------------------------|tiempos
    E|--------------------------------------------------------------|
    
    GUITARRA 2
    
    e|---------5--5--3---2--2--2------------------------------------|
    B|--------5--5--5---3--3--3-------------------------------------|
    G|-------4--4--4---4--4--4--------------------------------------|
    D|--------------------------------------------------------------| X 2
    A|--------------------------------------------------------------|
    E|--------------------------------------------------------------|
    
    GUITARRA 2
    
    e|---------------------------------------------------
  • Labios Rotos Bajo
    En mi opinión esta 100% correcta, espero les guste c:
    
    
    
    Intro
    G-----------------------------------------------------------------
    D-----------------------------------------------------------------
    A---------------------------------2-2-2-2-2-2-2-2-2-2-2-2-2-2-2-2-
    E-0-0-0-0-0-0-0-0-3-3-3-3-3-3-3-3--------------------------------- x3
    
    Verso
    G-----------------------------------------------------------------
    D-----------------------------------------------------------------
    A---------------------------------2-2-2-2-2-2-2-2-2-2-2-2-2-2-2-2-
    E-0-0-0-0-0-0-0-0-3-3-3-3-3-3-3-3---------------------------------
    
    G-----------------------------------------------------------------
    D-----------------------------------------------------------------
    A-------------0-2-----------------2-2-2-2-2-2-2-2-2-2-2-2-2-2-2-2-
    E-0-0-0-0-0-3-----0-0-0-0-0-0-0-0---------------------------------
    
    Verso
    G-----------------------------------------------------------------
    D----------------------------
  • +
    ¡Colabora con nosotros!
    Envíanos tu versión de esta canción
  • Tutorial
    HD
    Como tocar labios rotos de Zoe en guitarra acustica tutorial
    4:25
  • Tutorial
    HD
    Como tocar Labios Rotos (unplugged)
    Zoe Tutorial guitarra acustica
    3:08
  • Tutorial
    HD
    INTRO
    Como tocar LABIOS ROTOS en guitarra - Zoe [Tutorial Rockstars]
    1:31

Letra de Labios Rotos
Regalame tu corazón
déjame entrar a ese lugar
donde nacen las flores
donde nace el amor
entrégame tus labios rotos los quiero besar los quiero curar
los voy a cuidar con todo mi amor
Es raro el amor
es raro el amor
que se te aparece cuando menos piensas
Es raro el amor
es raro el amor
no importa la distancia el tiempo ni la edad
Mojare el desierto de mi alma con tu mirar
con tu tierna voz con tu mano en mi mano
por la eternidad y
entrégame esos labios rotos los quiero besar los quiero curar
los voy a cuidar con todo mi amor
Es raro el amor
es raro el amor
que se te aparece cuando menos piensas
Es raro el amor
es raro el amor
no importa la distancia el tiempo ni la edad
Amor amor amor amor
amor amor amor amor
amor amor amor amor
amor




[Labios Rotos chords][Labios Rotos cifra]
© LaCuerda.net · aviso legal · privacidad · es · en · pt · contacto