Acordes de Guitarra » Z »Zoe » Fantasma (Tab)

Fantasma
Zoe

Letras, Notas, Punteos, Tablaturas y Acordes de Guitarra (Tabs & Chords)

  • Letra y Acordes
    Intro: Bm,D, G, F#, Em
    
    Bm                             D
    Dame una señal, Aunque me de miedo,
    G                                 D
    No sé nada de ti, Y me siento muy mal.
    Bm                              D
    Sé que donde estas puede ser difícil,
    G                     F#
    O practicamente imposible.
    
    C                 Am       F                        Am
    Fantasma de mi corazón, Humilde,tierno,justo y soñador,
    C                       Am     F                  Am
    Gracias por todos esos años, Nunca te voy a olvidar.
    
    Bm, G, Cmaj7, Em    X2
    
    Bm                             D
    No hace falta ni ver una fotografía,
    
  • Letra y Acordes
    Intro: Bm, G
    
    Bm                             G
    Dame una señal, Aunque me de miedo,
    C                                 Bm
    No sé nada de ti, Y me siento muy mal.
    Bm                              G
    Sé que donde estas puede ser difícil,
    C                    Bm
    O practicamente imposible.
    
    G                 C       F                        A
    Fantasma de mi corazón, Humilde,tierno,justo y soñador,
    G                       C     F                  A
    Gracias por todos esos años, Nunca te voy a olvidar.
    
    Bm, G, C, Bm    X2
    
    Bm                             G
    No hace falta ni ver una fotografía,
    
  • Letra y Acordes
    Intro: B9 D G D E*
    
    e|----------------------------------------------|
    B|------2---------3-2-0-----0----0--------------|
    G|----4---4-----4-------0-----------------------|
    D|------------0---------------4----2-----0/2----|
    A|--2----------------------------------------2--|
    E|----------------------------------------------|
    
    B9                            D
    Dame una señal, aunque me de miedo
           G                D             E*
    No sé nada de ti, y me siento muy mal
    B9                              D
    Sé que donde estas puede ser difícil
        G                F#m
    O prácticamente imposible
    
    Coro:
    C                   Am     F                          Am
    
  • Tablatura
    e|----------------------------------------------|
    B|--------------------3-------------------------|
    G|------4--6--4----4-----6--4----4---4----------|
    D|-----------------------------5---4---2--------|
    A|----------------------------------------00h2--|
    E|----------------------------------------------|
    
    
    Bm                             D
    Dame una señal aunque me de miedo
    G                         D
    No se nada de ti y me siento muy mal
    
                           A|---00H2--|
    Bm                                 D
    Se que donde estas puede ser difícil
    G                      F#
    O prácticamente imposible
    
    ESTO SE TOCA MIENTRAS EL CORO
    
  • Tab p/Bajo
    PARA MI AMIGA RAAWR :D TZV...
    
    INTRO:
    G-4-4-4-4-4-4-4-4-7-7-7-7-7-7-7-7-----------------5h7-7-7-7-7-7-7H9---|
    D---------------------------------5-5-5-5-4-4-4-4---------------------|
    A---------------------------------------------------------------------|
    E---------------------------------------------------------------------|
    
    VERSO:
    G-4-4-4-4-4-4-4-4-7-7-7-7-7-7-7-7-----------------7-7-7-7-7-7-7H9---|
    D---------------------------------5-5-5-5-5-5-5-5-------------------| x2
    A-------------------------------------------------------------------|
    E-------------------------------------------------------------------|
    
    CORO:
    G-----------------------------------------------------------------|
    D-----------------------------------------------------------------| x2
    A-3-3-3-3-3-3-3-3-0-0-0-0-0-0-0-0-----------------0-0-0-0-0-0-0---|
    E---------------------------------1-1-1-1-1-1-1-1-----------------|
    
    OTRO:
    G-4-4-4-4-4-4-4-4------------------9-9-7-7-5-5-4-2-----------------|
    D-----------------5-5-5-5
  • +
    ¡Colabora con nosotros!
    Envíanos tu versión de esta canción

Letra de Fantasma
Dame una señal, Aunque me de miedo,
No sé nada de ti, Y me siento muy mal.
Sé que donde estas puede ser difícil,
O practicamente imposible.
Fantasma de mi corazón, Humilde,tierno,justo y soñador,
Gracias por todos esos años, Nunca te voy a olvidar.
No hace falta ni ver una fotografía,
Te llevo en la sangre, Vives en mi ser.
Tu espiritu está en las dunas del desierto
bajo un cielo inmortal, Te decimos adios.
Fantasma de mi corazón, Humilde,tierno,justo y soñador,
Gracias por todos esos años, Nunca te voy a olvidar.
Huuuuu Haaa Huuu
Me siento, me siento muy mal, en donde estás, en donde estás Papá X2

Videos de Fantasma
[ver más videos]

[ver todas las canciones]


© LaCuerda.net · Aviso Legal · Privacidad