Tablatura para Bajo de Zoe: Fantasma
Conexión · Inscripción
Letras y Acordes
Pantalla Completa
Imprimir
Versión Texto
Añadir Favorito
Otras Versiones

Mostrar Diagramas
Desfile Automático
Formato del Texto


Fantasma(BAJ)

Zoe

calidad:
zoe0414
AUTOR: Leon Larregi
ALBUM: Reptilectric (2008)
Enviado por gustavo
PARA MI AMIGA RAAWR :D TZV...

INTRO:
G-4-4-4-4-4-4-4-4-7-7-7-7-7-7-7-7-----------------5h7-7-7-7-7-7-7H9---|
D---------------------------------5-5-5-5-4-4-4-4---------------------|
A---------------------------------------------------------------------|
E---------------------------------------------------------------------|

VERSO:
G-4-4-4-4-4-4-4-4-7-7-7-7-7-7-7-7-----------------7-7-7-7-7-7-7H9---|
D---------------------------------5-5-5-5-5-5-5-5-------------------| x2
A-------------------------------------------------------------------|
E-------------------------------------------------------------------|

CORO:
G-----------------------------------------------------------------|
D-----------------------------------------------------------------| x2
A-3-3-3-3-3-3-3-3-0-0-0-0-0-0-0-0-----------------0-0-0-0-0-0-0---|
E---------------------------------1-1-1-1-1-1-1-1-----------------|

OTRO:
G-4-4-4-4-4-4-4-4------------------9-9-7-7-5-5-4-2-----------------|
D-----------------5-5-5-5-5-5-5-5------------------2-2-2-2-2-2-2---| x2
A------------------------------------------------------------------|
E------------------------------------------------------------------|

VERSO:
G-4-4-4-4-4-4-4-4-7-7-7-7-7-7-7-7-----------------7-7-7-7-7-7-7H9---|
D---------------------------------5-5-5-5-5-5-5-5-------------------| x2
A-------------------------------------------------------------------|
E-------------------------------------------------------------------|

CORO SIN BAJO

OTRO:
G-4-4-4-4-4-4-4-4------------------9-9-7-7-5-5-4-2---|
D-----------------5-5-5-5-5-5-5-5--------------------|
A----------------------------------------------------|
E----------------------------------------------------|

G----------|
D----------| x16
A---5-2~---|
E-0--------|

G-------------------------------------------------------|
D-------------------------------------------------------| x2
A-2-2---5-2-2---5-------5-------5-7-7-5-5-3-3---5-2-2---|
E-----0-------0---3-3-0---3-3-0---------------0---------|
Este fichero es trabajo propio de su transcriptor y representa su interpretación personal de la canción. El material contenido en esta página es
para exclusivo uso privado, por lo que se prohibe su reproducción o retransmisión, así como su uso para fines comerciales.

© LaCuerda.net · Aviso Legal · Privacidad