Acordes de Guitarra » Z »Zero Balas » Huir (Tab)

Huir
Zero Balas

Letras, Acordes y Tabs para Guitarra, Bajo y Ukulele

  • |---------------------------------------------------------|
    |---------------------------------------------------------|
    |---------------------------------------------------------|
    |------------------------------------------------5-7-8-8--|
    |-7v-7v-7v-0-5---7v-7v-7v-0-5---7v-7v-7v-0-5---7----------|
    |---------------------------------------------------------|
    
    |---------------------------------------------------------|
    |---------------------------------------------------------|
    |----------------------------------------------5----------|
    |----------------------------------------------5----------|
    |-7v-7v-7v-0-5---7v-7v-7v-0-5---7v-7v-7v-0-5---3----------|
    |---------------------------------------------------------|
    
    A5 B5 E5
    Siempre andube entre tinieblas
    nunca encontraba la tranquilidad
    refugiado en mi silencio
    Trataba de no morir
    G#5 A5                 E5
    
  • +
    ¡Colabora con nosotros!
    Envíanos tu versión de esta canción

Letra de Huir
Siempre andube entre tinieblas
nunca encontraba la tranquilidad
refugiado en mi silencio
Trataba de no morir
Y ya he perdido mil batallas
Tengo que huir de una forma
Que nadie se acuerde de mi
Quiero borrar los recuerdos
Y destruir mi memoria
Olvidar lo que vi, quien fui
[Riff]
Se muy bien lo que ahora vendra
Es que un cruel camino me espera
y sin marcha atraz caminare
hasta encontrar mi lugar
en la oscuridad de mi alma
no quiero olvidar lo que hise mal
Tengo que huir de una forma
Que nadie se acuerde de mi
Quiero borrar los recuerdos
Y destruir mi memoria
Olvidar lo que vi, quien fui
Tengo que huir de una forma
Que nadie se acuerde de mi
Quiero borrar los recuerdos
Y destruir mi memoria
Olvidar lo que vi, quien fui
[Riff]
SISI FALTA EL SOLO NO ES TAN YUCA LUEGO LO SUBO :)
______________________________________________________________________
Transcripción por Angelo (www.purevolume.com/dopamina)
Hablamos!




[Huir chords][Huir cifra]
© LaCuerda.net · aviso legal · privacidad · es · en · pt · contacto
DINAMICO