Acordes de Guitarra » Z »Zero Balas » Abismo (Tab)

Abismo
Zero Balas

Letras, Acordes y Tabs para Guitarra, Bajo y Ukulele

  • |-----------------------------------------------------|
    |----88-66-55-66-55-6-5----88-66-55-66-55-6-5---------|
    |-55--------------------44----------------------------|
    |-----------------------------------------------------|
    |-----------------------------------------------------|
    |-----------------------------------------------------|
    
    |-----------------------------------------------------|
    |----88-66-55-66-55-6-5------66-55-33-66-33-6-3-1-----|
    |-22----------------------44--------------------------|
    |-----------------------------------------------------|
    |-----------------------------------------------------|
    |-----------------------------------------------------|
    
    [Verso]
    
    C5
    Su mundo avanza rapido
    G5
    Mientras tu estas mirandote
    
  • +
    ¡Colabora con nosotros!
    Envíanos tu versión de esta canción

Letra de Abismo
[Verso]
Su mundo avanza rapido
Mientras tu estas mirandote
Mientras sigues pensando
Como le puedes caer bien
De pronto no eres el mejor
Cambias tu forma de actuar
Pues ella es tan especial
Que hasta tu dignidad se vaaa se vaaa
wohhhhoh y es la inseguridad
y el miedo a fracasar
wohhhhoh y es tu inseguridad
la que te va llevar al abismo
[Riff]
[Verso]
Ella no es tan convencional
Sabes no es como los demas
Ahora te esta obserbando
Y notara tu falsedad
Ella se ira a descepcionar
Mejor empiezate a mostrar
Como es quien eres en verdad
Para que alguien te pueda amaaar amaaar
wohhhhoh y es la inseguridad
y el miedo a fracasar
wohhhhoh y es tu inseguridad
la que te va acabar
[Interdulio] (ezta parte dezpuez la subo)
.. .. .. ..
Tratas de crear un mundo irreal
Para Evitar tu soledad
Sabiendo que asi te destruiras
Y no encontraras otro final
wohhhhoh y es la inseguridad
y el miedo a fracasar
wohhhhoh y es tu inseguridad
la que te va llevar al abismo
[Riff]
______________________________________________________________________
spectro_punk5@hotmail.com
alaoz!

Video de Abismo
[]




[Abismo chords][Abismo cifra]
© LaCuerda.net · aviso legal · privacidad · es · en · pt · contacto