Acordes de Guitarra » Z »Zero Balas » Para estar a tu lado (Tab)

Para estar a tu lado
Zero Balas

Letras, Acordes y Tabs para Guitarra, Bajo y Ukulele

  • |-----------------------------------------------------|
    |-----------------------------------------------------|
    |-10-11-10-8-66---------------------------------| x3
    |-----------------------------------------------------|
    |-----------------------------------------------------|
    |-----------------------------------------------------|
    
    |----------------------------------------------------|
    |--------------------9-------------------------------|
    |-10-11-10-8-66-----6-5-6---------------------|
    |-----------------------------------------------------|
    |-----------------------------------------------------|
    |-----------------------------------------------------|
    
    Verso: do#5 sol#5 fa#5 sol#5
    coro: la#5 sol#5 la#5 fa#5 sol#5 do#5 sol#5 fa#5 sol#5
    (en el coro esta la variacion en la#5 a sol#5 y luego fa#5 y
     buelve a empezar la rola del verso, el rargueo en el coro lleva el ritmo.)
    
    DO#5        SOL#5
    
  •   C#5       G#5            F#5           G#5
    |---1-2-1--------1-2-1---------1-2-1-------4---------|
    |---------4-2-2--------4-2-2----------4-2-2--2-1-2----|
    |---------------------------------------------------------------|
    |---------------------------------------------------------------|
    |---------------------------------------------------------------|
    |---------------------------------------------------------------|
    
    
    VERSO 1:
    
    C#5         G#5              F#5              G#5
    Tu sabes bien lo que anhelo y es que contigo siempre kiero estar
    C#5         G#5             F#5              G#5
    y que aceptes mis errores, juro que algún día yo voy a cambiar
    
    Lo haré por ti y tú vendrás impacientemente te esperaré
    e|--------------------------------------|
    B|--------------------------------------|
    G|-6xx6x6-------------------------------|
    
  • |----------------------------------------------------------|
    |--------------------------------------------------7-------|
    |-10-11-10-8-6--8-10-11-10-8-6--8-10-11-10-8-6---8---8-6-5-|
    |----------------------------------------------------------|
    |----------------------------------------------------------|
    |----------------------------------------------------------|
    
    C#5 G#5 F#5 G#5
    Tu sabes bien lo que anhelo
    y es que contigo siempre quiero estar
    y que aeptes mis errores
    juro que unj dia yo voy cambiar
    
    F#5 G#5
    lo hare por ti y tu vendras
    y pacientemente te esperare
    
    C#5 G#5 F#5 G#5
    dices que yo no lo lograre
    que es mi naturleza engañar siempre
    
  •     C#5       G#5            F#5           G#5
    |-----------------------------------------------------|
    |-----------------------------------------------9-----|
    |--10-11-10-8-6-6-10-11-10-8-6-6-10-11-10-8-6-6--6-5-6|
    |-----------------------------------------------------|
    |-----------------------------------------------------|
    |-----------------------------------------------------|
    
    
    VERSO 1:
    
    C#5         G#5              F#5              G#5
    Tu sabes bien lo que anhelo y es que contigo siempre kiero estar
    C#5         G#5             F#5              G#5
    y que aceptes mis errores, juro que algún día yo voy a cambiar
    
    Lo haré por ti y tú vendrás impacientemente te esperaré
    e|--------------------------------------|
    B|--------------------------------------|
    G|-6xx6x6-------------------------------|
    
  • +
    ¡Colabora con nosotros!
    Envíanos tu versión de esta canción

Letra de Para estar a tu lado
Verso: do#5 sol#5 fa#5 sol#5
(en el coro esta la variacion en la#5 a sol#5 y luego fa#5 y
buelve a empezar la rola del verso, el rargueo en el coro lleva el ritmo.)
Tu sabes bien lo que anhelo
Y es que contigo siempre quiero estar
Y que aceptes mis errores
Juro que un dia yo voy a cambiar
Lo hare por ti y tu vendras
Impacientemente te esperare
Dices que no lo lograre
Que es mi naturaleza engañar siempre
Sabes que yo lo intentare
Hare todo para estar a tu lado
(Repite verso)
Tu sabes bien que tus besos
Son lo mas nuevo que yo quiero probar
Y cada vez que te veo
uno de ellos yo intento robar
Lo haras por mi y ya veras
Que el temor que tienes ya no existira
Dices que no lo lograre
Que es mi naturaleza engañar siempre
Sabes que yo lo intentare
Hare todo para estar a tu lado
Dices que no lo lograre
Que es mi naturaleza engañar siempre
Sabes que yo lo intentare
Hare todo para estar a tu lado ohhh...
Estar a tu ladooo (uhooo)
(Uhooo) estar a tu lado
Para estar a tu lado
acordes:
4 4 2 6
4 4 2 6
6 4 2 6
6 6 4 8
4 6 4 8
x 4 2 6
bueno esta es mi primera tab aki espero q
les guste, es una cnacion muy bakana y ps cualquier duda mi correo
cardeanssants@hotmail.com, garcias

Video de Para estar a tu lado
[]




[Para estar a tu lado chords][Para estar a tu lado cifra]
© LaCuerda.net · aviso legal · privacidad · es · en · pt · contacto