Acordes de Guitarra » V »Villancicos » Santa Claus llegó a la ciudad (Tab)

Santa Claus llegó a la ciudad
Villancicos

Letras, Acordes y Tabs para Guitarra, Bajo y Ukulele

  •  G
    Sabes mi amor,
     C
    pórtate bien,
         G            C
    no debes llorar, sabes porque,
     G            D7          G
    Santa Clos llegó a la ciudad.
    
         G
    El todo lo apunta,
        C
    el todo lo ve,
         G                C
    te sigue los pasos estés donde estés,
     G             D7         G
    Santa Clos llegó a la ciudad.
    
    CORO
          C
    
  • e---------0-2-3-3-----------0------------------------------
    B-0-1-3-3---------0-1-3-3-3---3-1-1---0--3---0-------------
    G------------------------------------------0----2-0---0----
    D---------------------------------------------------4------
    A----------------------------------------------------------
    
    e---------0-2-3-3-----------0------------------------------
    B-0-1-3-3---------0-1-3-3-3---3-1-1---0--3---0-------------
    G------------------------------------------0----2-0---0----
    D---------------------------------------------------4------
    A----------------------------------------------------------
    
    e--3-5-3-2-3-0-0--3-5-3-2-3-0--5-7-5-4-5-2-2--2-3-5-3-2-0----
    B---------------------------------------------------------3--
    G------------------------------------------------------------
    D------------------------------------------------------------
    A------------------------------------------------------------
    
    e---------0-2-3-3-----------0------------------------------
    B-0-1-3-3---------0-1-3-3-3---3-1-1---0--3---0-------------
    
  • +
    ¡Colabora con nosotros!
    Envíanos tu versión de esta canción

Letra de Santa Claus llegó a la ciudad
Sabes mi amor,
pórtate bien,
no debes llorar, sabes porque,
Santa Clos llegó a la ciudad.
El todo lo apunta,
el todo lo ve,
te sigue los pasos estés donde estés,
Santa Clos llegó a la ciudad.
Te observa cuando duermes,
te mira al despertar,
no intentes ocultarte de él
pues siempre te verá.
El sabe de ti,
el sabe de mí,
lo sabe todo, no intentes huir,
Santa Clos llegó a la ciudad.




[Santa Claus llegó a la ciudad chords][Santa Claus llegó a la ciudad cifra]
© LaCuerda.net · aviso legal · privacidad · es · en · pt · contacto