Acordes de Guitarra » V »Villancicos » Rodolfo El Reno (Tab)

Rodolfo El Reno
Villancicos

Letras, Acordes y Tabs para Guitarra, Bajo y Ukulele

  • SOL
    ERA RODOLFO UN RENO
                    RE
    QUE TENIA LA NARIZ,
    
    ROJA COMO LA GRANA
                       SOL
    CON UN BRILLO SINGULAR.
    
    SOL
    TODOS SUS COMPAÑEROS
                    RE
    SE REIAN SIN PARAR,
    
    Y NUESTRO BUEN AMIGO
                        SOL
    TRISTE Y SOLO SE QUEDO.
    
    DO           SOL
    PERO NAVIDAD LLEGÓ
    
  • e------0-----3-0---/---0---0---3-2~/---------2-0--/---0---0---0--/
    b----3---3-------3~/-3---3---3-----/-1-3-1-------3/-3---3---3---0/
    g----------4-------/---------------/-------2------/--------------/
    d------------------/---------------/--------------/--------------/
    a------------------/---------------/--------------/--------------/
    E------------------/---------------/--------------/--------------/
    
    e------0-----3-0---/---0---0---3-2~/---------2-0--/---0---0---5-3/
    b----3---3-------3~/-3---3---3-----/-1-3-1-------3/-3---3---3----/
    g----------4-------/---------------/-------2------/--------------/
    d------------------/---------------/--------------/--------------/
    a------------------/---------------/--------------/--------------/
    E------------------/---------------/--------------/--------------/
    
    e---0-2-3-0------/---0------/---------0---0/-5-3-2-0------/
    b-----------3-0-3/-1---3-1-0/---0-2-3---3--/---------3-1-3/
    g----------------/----------/-2------------/--------------/
    d----------------/----------/--------------/--------------/
    a----------------/----------/--------------/--------------/
    E----------------/----------/--------------/--------------/
    
  • A
    Era Rodolfo un reno,
                    E7
    que tenia la nariz
    
    roja como la grana
                        A
    y de un brillo singular
    
    todos sus compañeros
                   E7
    se reían sin parar
    
    y nuestro buen amigo,
                    A
    no paraba de llorar
    
    D         A
    Pero Navidad llegó,
    E7             A
    
  • Rodolfo el Reno
    Intro
    sisi do#6 re6, sila sila fa# la, sol sol la si , sol fa# sol fa# re fa#
    sisi do#6 re6, sila sila fa# la, mi mi fa# sol do# re
    
    Era Rodolfo un reno,  que tenía la nariz
    la si la fa# re6 si la, lasi lasi la re6 do#6
    
    roja como la grana ,con un brillo singular.
    sol la sol mi do#6 sila, lasi lasi la si fa#
    
    Todos sus compañeros , se reían sin parar,
    la si la fa# re6 si la,lasi lasi la re6 do#6
    
    y nuestro buen amigo, triste y solo se quedó.
    sol la sol mi do#6 sila,lasi lasi la mi6 re6
    
    Pero Navidad llegó ,Santa Clos bajó
    sisi re6re6 la fa# la, sol si la sol fa#
    
    y a Rodolfo lo eligió , por su singular nariz.
    mi fa# sol# si do#6 re6 do#6 ,re6 re6do#6 si do#6 si la
    
    Tirando del trineo ,fue Rodolfo sensación,
    la si la fa# re6 si la,lasi lasi la re6 do#6
    
    y desde ese momento,  toda burla terminó
    sol la sol mi do#6 si la, lasi lasi la mi6 re6
  • +
    ¡Colabora con nosotros!
    Envíanos tu versión de esta canción
  • Tutorial
    HD
    Como tocar RODOLFO EL RENO en Guitarra Acustica COMPLETO (HD)
    Tutorial ACORDES PUNTEO
    9:45

Letra de Rodolfo El Reno
ERA RODOLFO UN RENO
QUE TENIA LA NARIZ,
ROJA COMO LA GRANA
CON UN BRILLO SINGULAR.
TODOS SUS COMPAÑEROS
SE REIAN SIN PARAR,
Y NUESTRO BUEN AMIGO
TRISTE Y SOLO SE QUEDO.
PERO NAVIDAD LLEGÓ
SANTA CLOSS BAJÓ
Y A RODOLFO LO ELIGIO
POR SU SINGULAR NARIZ.
TIRANDO DEL TRINEO
FUE RODOLFO SENSACIÓN,
Y DESDE ESE MOMENTO
TODA BURLA SE ACABO,
TODA BURLA SE ACABO,
TODA BURLA SE A-CA-BO,




[Rodolfo El Reno chords][Rodolfo El Reno cifra]
© LaCuerda.net · aviso legal · privacidad · es · en · pt · contacto