Acordes de Guitarra » V »Villancicos » Navidad, Navidad (Tab)

Navidad, Navidad
Villancicos

Letras, Acordes y Tabs para Guitarra, Bajo y Ukulele

  • D
    Ha llegado navidad,
                        G
    La familia alegre esta
         E            A
    Celebrando noche buena
                        D
    En paz del santo hogar.
    
    
    Dios nos de felicidad
    En esta noche sin par
    Y que el año que comienza
    Sea de prosperidad
    
    D
    Navidad, Navidad
    A           D
    Hoy es navidad
    G                 D
    
  • CUERPO 1
    
    E-||----------------------------------------------------------||
    B-||-0-0-0—--0-0-0---0-3--------0----1-1-1---0-0-0-------0----||
    G-||----------------------0-2-----------------------2-2-----2-||
    D-||----------------------------------------------------------||
    A-||----------------------------------------------------------||
    E-||----------------------------------------------------------||
    
    E-||----------------------------------------------------------||
    B-||--3—--0-0-0----0-0-0—-0-3-------0--1-1-1---0-0-0—-3-3---1-||
    G-||---------------------------0-2----------------------------||
    D-||----------------------------------------------------------||
    A-||----------------------------------------------------------||
    E-||----------------------------------------------------------||
    
    E-||----------------------------------------------------------||
    B-||----------------------------------------------------------||
    G-||-2-0------------------------------------------------------||
    D-||-----
  • e||---------------|---------------|-------------------|------------------|
    B||---------------|---------------|-------------------|------------------|
    G||---------------|----0----------|-------------------|---------------0--|
    D||-2-2-2--2-2-2--|-2-------0--2--|-3-3-3-3-3-3--2-2--|-2-2-0-0--2-0-----|
    A||---------------|-------3-------|-------------------|------------------|
    E||---------------|---------------|-------------------|------------------|
    
    e||---------------|---------------|-------------------|------------------|
    B||---------------|---------------|-------------------|------------------|
    G||---------------|-----0---------|-------------------|-------0-0--------|
    D||-2-2-2--2-2-2--|-2-------0-2---|--3-3-3---3-3--2-2-|--2-2-------3-0---|
    A||---------------|------3--------|-------------------|---------------3--|
    E||---------------|---------------|-------------------|------------------|
    
    
    
    e||---------------|---------------|-------------------|------------------|
    B||---------------|---------------|-------------------|------------------|
    G||---------------|---------------|-------------0--0--|-0-0-2-0----------|
    D||---2--0--------|---2--0--------|----3--2--0--------|---------3--0--2--|
    
  • e||------------------|-----------------|-----------------------|
    B||------------------|-----------------|-----------------------|
    G||·-----------------|-----------------|--------------0--0-----|
    D||·-----2--0--------|-----2--0--------|-----3--2--0-----------|
    A||------------3-----|-----------3--0--|--0--------------------|
    E||---3-----------3--|--3--------------|-----------------------|
    
    e||-----------------------|-----------------|------------------|
    B||-----------------------|-----------------|------------------|
    G||--0--0--2--0-----------|-----------------|------------------|
    D||--------------3--0--2--|-----2--0--------|-----2--0---------|
    A||-----------------------|-----------3-----|-----------3--0---|
    E||-----------------------|--3-----------3--|--3---------------|
    
    e||---------------------|-----------------------|--------------|
    B||---------------------|-----------------------|--------------|
    G||---------------0--0--|--0--0--2--0-----------|--------------|
    D||------3--2--0-----
  • +
    ¡Colabora con nosotros!
    Envíanos tu versión de esta canción
  • Tutorial
    HD
    Tutorial como tocar navidad, navidad guitarra.
    4:30

Letra de Navidad, Navidad
Ha llegado navidad,
La familia alegre esta
Celebrando noche buena
En paz del santo hogar.
Dios nos de felicidad
En esta noche sin par
Y que el año que comienza
Sea de prosperidad
Navidad, Navidad
Hoy es navidad
Hoy es día de alegría
Y felicidad
Navidad, Navidad
Hoy es navidad
Hoy es día de alegría
Y felicidad
El día feliz llegó
En que comenzó el amor
Porque en Belén de Judá
Ha nacido el redentor.




[Navidad, Navidad chords][Navidad, Navidad cifra]
© LaCuerda.net · aviso legal · privacidad · es · en · pt · contacto