Acordes de Guitarra » V »Villancicos » Campana sobre campana (Tab)

Campana sobre campana
Villancicos

Letras, Acordes y Tabs para Guitarra, Bajo y Ukulele

  • G                 D                    G
    Campana sobre campana, y sobre campana una,
    
    G              D                           G
    Asómate a la ventana, verás al niño en la cuna.
    
    G         C          G        C          G
    Belén, campanas de Belén, que los angeles tocan
    
           D        G
    ¿Qué nuevas me traéis?
    
    G                   D    A7      D    G
    Recogido tu rebaño ¿A dónde vas pastorcillo?
    
    G                       D   A7      D       G
    Voy a llevar al portal requesón, manteca y vino.
    
    G         C          G        C          G
    Belén, campanas de Belén, que los angeles tocan
    
  •    E                B7                    E
    I  campana sobre campana, y sobre campana una,
                       B7                       E
       asomate a la ventana veras al niño en la cuna
    
    
    coro
    
      E        A          E
    /Belen campanas de Belen,
        A            E           B7          E
    que los angeles tocan ¿que nuevas nos traeis?/
    E                       F#m7    B7      E
    recogido tu rebaño ¿adonde vas, pastorcito?
                              F#m7      B7      E
    voy a llevar al portal requeson, manteca y vino.
    
    
    II  Campana sobre campana y sobre campana dos
    
    
  • E:------------------------------------------------
    B:-----5-5-5-5-5-4-5-7-4-0-----7-7-9-10-9-7-9-7-5-
    G:------------------------------------------------
    D:------------------------------------------------
    A:------------------------------------------------
    E:------------------------------------------------
    (Todo 2 veces)
    
    Coro: Belén Campanas...............
    
    E: -----------------------------------------------------------
    B:-9-12-12-14-12-10-14-12-12-14-12-14-16-17-12-14-12-10-9-7-5-
    G:------------------------------------------------------------
    D:------------------------------------------------------------
    A:------------------------------------------------------------
    E:------------------------------------------------------------
    
    Estrofa: Recogido tu Rebaño............
    
    E:------------------------------------------------
    
  • E:---------------------------------------------------------
    B:---------------------------------------------------------
    G:---------------------------------------------------------
    D:0---0--0--0--0--2-------2--2--4--5--4--2--4--2--0--------
    A:---------- 4------4--0----------------------------------
    E:---------------------------------------------------------
    
    (Todo 2 veces)
    
    . Belén Campanas…
    
    E:-------------------------------------------------------
    B:------------------------------2--3-----------------------
    G:--2--4--2--0--4--2--2--4--2--4------2-4--2--0------------
    D:4---4------------------------------------------4--2---0-
    A:---------------------------------------------------------
    E:--------------------------------------------------------
    
    
    . Recogido tu Rebaño…
    
  • 2/4
    
    
    Primera estrofa:
    
    
    Cam - pa - na so - bre cam - pa_a - na
     E     E    E  E    D#  E    F# D#   B
    
    y  so - bre cam - pa - na u__u - na.
    F# F#    G#  A    G#   F# G# F#   E
    
    A - só - ma - te_a_e sa ven - ta_a - na,
    E    E    E      E   D#  E    F# D#   B
    
    ve - rás a_un Ni - ño_en su cu_u - na.
    F#    F#  G#   A     G#  F# G# F#   E
    
    
    Coro:
    
    
    Be - lén, cam - pa - nas de - Be - lén,
    G#    B    B    C#    B   A   C#    B
    
    que los án - ge - les to_o - can,
      B  C# B    C#    D#  E B    G# 
    
    ¿Qué nue - vas nos tra - éis?.
      C#  B     A   G#  F#   E
    
    Be - lén, cam - pa - nas de - Be - lén,
    G#    B    B    C#    B   A   C#    B
    
    que los án - ge - les to_o - can,
      B  C# B    C#    D#  E B    G# 
    
    ¿Qué nue - vas nos tra - éis?.
      C#  B     A   G#  F#   E
    
    
    
    Solo:
    
    
    Re - co - gi_i - do tu re - ba_a - ño,
    G#    A   G# F#   E  B C#    B A   G#
    
    ¿a dón - de vas pas - tor - ci_i - llo_o?,
     B  B    A#  F#  B     A    G# F#    E F#
  • +
    ¡Colabora con nosotros!
    Envíanos tu versión de esta canción
  • Tutorial
    HD
    Como tocar Campana sobre Campana en Guitarra (HD)
    Campanas de Belen Tutorial Villancicos Acordes
    2:54
  • Tutorial
    HD
    Villancicos en guitarra Campana Sobre Campana como tocar fácil guitarra
    5:20
  • Tutorial
    Como tocar Los Villancicos en el Violin Tema CAMPANA SOBRE CAMPANA
    4:19

Letra de Campana sobre campana
I campana sobre campana, y sobre campana una,
asomate a la ventana veras al niño en la cuna
/Belen campanas de Belen,
que los angeles tocan ¿que nuevas nos traeis?/
recogido tu rebaño ¿adonde vas, pastorcito?
voy a llevar al portal requeson, manteca y vino.
II Campana sobre campana y sobre campana dos
asomate a la ventana porque esta naciendo Dios.
III Campana sobre campana y sobre campana tres
en una cruz a esta hora el niño va a padecer.
" Las Fuerzas que mueven la historia son las mismas
que mueven el corazon del hombre"




[Campana sobre campana chords][Campana sobre campana cifra]
© LaCuerda.net · aviso legal · privacidad · es · en · pt · contacto