Acordes de Guitarra » V »Viejas Locas » Todavía estas ahí (Tab)

Todavía estas ahí
Viejas Locas

Letras, Acordes y Tabs para Guitarra, Bajo y Ukulele

  • Bueno este tema es facil, esta muy bueno para tocarlo con un
    amigo q toque la armonica
    
    Intro: Sol
    
    Verso 1:
    
    SOL(G)
    Si ya pasaron las seis
    
    y no sabes donde ir
    
    el rock´n´roll se acabó
    
    y no te podes dormir.
    
    Y no sabés qué hacer
    y no sabés dónde ir
    y no sabés qué hacer
    si todavía estás ahí.
    si todavia estas ahi,si todavia estas ahi
    
    Repite verso 1
    
    Verso 2:
    
    SOL(G)
    El sol se puso otra vez
    la gente sale a comprar
    y vos tomándote un vino
    porque querés bajar
    te quieren asustar
    y vos no los dejás
    te quieren asustar
    porque te ves muy mal.
    porque te ves muy mal,porque te ves muy mal.
    
    Solo: Do(C)
    
    Repite verso 2
    
    y sigue
    
    Sol(G)
    ...porq te ves muy mal... (repite esto hasta el final)
    ...muy muy mal...
    ...porq te ves muy mal...
    
    
    Cualquier duda matdanubio@hotmail.com
  • Solo
    
    e|-----------------|----------------|------------|-----------|s3333-s3333
    B|6--6----------3--|6-6--6-------3--|3-3----5-5-3|3-3---5-5-3|s3333-s3333
    G|5b-5ba-p3-----3--|7-7--7s5s3---3--|3-3----5-5-3|3-3---5-5-3|-----------
    D|----------5-5---5|-----------5---5|----5-------|----5------|-----------
    A|-----------------|----------------|------------|-----------|-----------
    E|-----------------|----------------|------------|-----------|-----------
    
    
    e|-s333333333333333333-|---------------dos---|-s33333-s33333-s333333333333|
    B|-s333333333333333333-|-3-3-----5-5---veces-|-s33333-s33333-s333333333333|
    G|---------------------|-3-3-----5-5-3-------|----------------------------|
    D|---------------------|-----5---------------|----------------------------|
    A|---------------------|---------------------|----------------------------|
    E|---------------------|---------------------|----------------------------|
    
    
    e|--3-3-------3-3-------3-3------------------------------------------
    B|--3-3-------3-3---
  • TODAVIA ESTAS AHI - VIEJAS LOCAS
    
      riff  1
    G|------------------------------------------
    D|------------------------------------------
    A|------------------------------------------
    E|-3-3-5-6-5--3-5-6-5---3-3-5-6-5--3-5-6-5--
    
       riff 2
    G|------------------------------------------
    D|-5---------5-5---------5--------5-5-------
    A|---7-5-7-------7-5-7-----7-5-7------7-5-7-
    E|------------------------------------------
    
       riff 3
    G|-----------------------------------------
    D|-----------------------------------3-4-5-
    A|-3--------3-3--------3--------3-5--------
    E|---5-3-5------5-3-5----5-3-5-------------
    
    
    Intro:
    
    Riff 1
    
    Si ya pasaron las seis y no sabes donde ir,
    el rock and roll se acabó y no te podés dormir,
    y no sabés que hacer, y no sabés donde ir,
    y no sabés que hacer, si todavía estás ahí,
    si todavía estás ahí, si todavía estás ahí.
    
    Riff 2:
    
    Si ya pasaron las seis y no sabes donde ir,
    el rock and roll se acabó y no te podés dormir,
    y no sabés que hacer, y no sabés dond
  • el primer desliz (del 3er a 10mo traste)lo hace a los 12seg aprox.
    
    
    G|------------------------------------------
    D|-------5-7-8-7-5(x8)---3/5(x10)-----------
    A|-3/10-------------------------------------
    E|------------------------------------------
    
    minuto 1:04
    
    G|------------------------------------------
    D|-5-------55-------------------------------
    A|---7-5-7----7-5-7-------------------------
    E|------------------------------------------
    
    apartir del solo de armonica empieza repitiendo asi
    
    G|------------------------------------------
    D|-5-------5-------5-------5-------5-------5
    A|---7-5-7---7-5-7---7-5-7---7-5-7---7-5-7--
    E|------------------------------------------
    
    en el minuto 2:24 el sonido de bajo se esconde
    un poco por el solo de guitarra pero a mi
    me suena que hace algo asi
    
    G|-5------------------------
    D|---7-5-7(x4)--5-----------
    A|----------------7-5-7(x4)-
    E|--------------------------
    esto x2 y sigue con
    
    G|-------------------
    D|-5-------55--------
    A|---7-5-7----7-5-7--
    E|
  • Todavia estas ahí (Viejas Locas)
    
    Bueno aca les dejo el tema completo...
    
    (4)= aspirada
     4 = soplada
    (4b)= bending
    (12)= se aspira la celda 1 y 2 al mismo tiempo
     12 = se sopla la celda 1 y 2 al mismo tiempo
    4_3= ligado
    <(4)(5)>= tremolo
    (5...)= nota larga
    
    Armonica en C (Do)
    
    (4)b <(4)(5)>_(5b...)
    (4b)4_3 3
    (4b)4_3 3
    Si ya pasaron las seis
    3 (3) 4 3
    y no sabes donde ir
    (3)_(4b...)
    el rock´n´roll se acabó
    <(4)(5)>
    y no te podes dormir
    (4b) (4b) (4b)4_3
    y no sabes que hacer
    3 (3) 4 3
    y no sabes donde ir
    3 (3) 2 3
    y no sabes que hacer
    (3)_(4b...)
    Si todavía estás ahí
    (4b)_(5)_(4) 4 (3) 3
    Si todavía estás ahí
    (3)_(4b...
    Si todavía estás ahí
    ...) sigue 4_3
    --------------------------
    Si ya pasaron las seis
    3 (3) 4 3
    y no sabes donde ir
    (4b) (4b) (4b...)
    el rock´n´roll se acabó
    (4b)<(5)(4)> (4b)<(5)(4)> (4b)<(5)(4)>
    y no te podes dormir
    (5) (4b)4 3 3
    y no sabes que hacer
    3 (3) 4 3
    y no sabes donde ir
    (4b) (4b) (4b...)
    y no sabes que hacer
    (
  • +
    ¡Colabora con nosotros!
    Envíanos tu versión de esta canción






[Todavía estas ahí chords][Todavía estas ahí cifra]
© LaCuerda.net · aviso legal · privacidad · es · en · pt · contacto