Acordes de Guitarra » V »Viejas Locas » Me vuelvo al sudeste (Tab)

Me vuelvo al sudeste
Viejas Locas

  • Letra y Acordes
    Intro: RE - LA
    
    RE
    Cuando la rana me dijo que se iba a marchar
    LA
    agarre las valijas y me puse a empacar
    RE
    tome unos cuantos tragos de vino con limón
    LA
    para olvidar el momento y tener mas calor.
    
    Pare de pronto un taxi que venia por ahí
    estaba muy loco no sabia donde ir
    le dije decidido que me lleve a Guillón
    y me dijo que me quede que el sudeste es mejor.
    
    MI                       LA
      Y me vuelvo al sudeste,
      me vuelvo al sudeste,
      me vuelvo al sudeste,
    
  • Tablatura
    SOLO (1:52)
    
    e|-------------------------------------------------------------
    B|----8----8----8----8----8----8----8--------------------------
    G|-7b---7b---7b---7b---7b---7b---7b----7b-7ba-p5---5b----------
    D|----------------------------------------------------7--------
    A|-------------------------------------------------------------
    E|-------------------------------------------------------------
    
    e|--------------------12-12------------------------------------
    B|-----10----10--12b/-------12//-10----10v-----10-10----10-12--
    G|-s11----11------------------------11------11-------11--------
    D|-------------------------------------------------------------
    A|-------------------------------------------------------------
    E|-------------------------------------------------------------
    
    e|--------------------12-----12-----12-----12-----12--------12-
    B|-12ba-10-----10-12b----12b----12b----12b----12b----12-12b----
    G|----------11-------------------------------------------------
    D|-----------------------
  • +
    ¡Colabora con nosotros!
    Envíanos tu versión de esta canción

Letra de Me vuelvo al sudeste
Cuando la rana me dijo que se iba a marchar
agarre las valijas y me puse a empacar
tome unos cuantos tragos de vino con limón
para olvidar el momento y tener mas calor.
Pare de pronto un taxi que venia por ahí
estaba muy loco no sabia donde ir
le dije decidido que me lleve a Guillón
y me dijo que me quede que el sudeste es mejor.
Y me vuelvo al sudeste,
me vuelvo al sudeste,
me vuelvo al sudeste,
me vuelvo al sudeste.
A la rana no le importa si me pisa un camión
choque con un peruano que es un guns and roses
y a la media noche y me va a hacer creer
que se va a casar con ella si se deja otra vez.
Esto me deprime y me quiero ir
le pedí al 97 que me sacara de aquí
le dije al gordito que me lleve a Morón
y me dijo que me quede que el sudeste es mejor.
Y me vuelvo al sudeste,
me vuelvo al sudeste,
me vuelvo al sudeste,
me vuelvo al sudeste.
Y si la rana esta cansada
yo la puedo perdonar
aunque este muy lejos de casa
la quisiera ir a buscar.
Pero no, no, no, no, no, no....
Y me vuelvo al sudeste,
me vuelvo al sudeste ,
me vuelvo al sudeste,
me vuelvo al sudeste.
Bueno este tema es un inedito de viejas locas, suena bien, lo
que no se bien que acorde hace en la intro al final y cuando
termina los solos, pero demas suena bien
el que encuentre algun error q debo tener que me mande un mail
matdanubio@hotmail.com



© LaCuerda.net · aviso legal · privacidad · contacto