Acordes de Guitarra » V »Viejas Locas » Dos Nenas (Tab)

Dos Nenas
Viejas Locas

Letras, Acordes y Tabs para Guitarra, Bajo y Ukulele

  •     G5                 E     G    A  A#   B   C 
    
    E --3---6-7--3----3----0-----3----5---6---7----8---------------------------
    A --5-------(5)---5---(2)----5----7---8---9---10-------------------------------
    D --5-------(5)---5---(2)----5----7---8---9---10--------------------------------
    G --------------------(1)---------------------------------------------
    B -----------------------------------------------------------------
    e -----------------------------------------------------------------
    
    C5
    Si una chica viene y dice que te quiere curtir
            G5
    y se despide de su amiga con un beso de boca
    C5
    Dice que esta noche no te vas a corregir
    G5
    dice que esta noche no se va a dormir sola.
    
    D5                    G5
    Ella... ¿qué quiere de mí?
    
  • e -----------------
    B -----------------
    G -----------------
    D -----------------
    A --5-57--5--------
    E --3-33--3-6-7---- (x6)
        G
    
    e ----------------
    B ----------------
    G -----22-33-44-5-
    D --55-22-33-44-5-
    A --55-00-11-22-3-
    E --33------------
        G  A  A#  B  C
    
    C5
    Si una chica viene y dice que te quiere curtir
            G5
    y se despide de su amiga con un beso de boca
    
  •      G5                      E     G    A  A#   B   C
    1) ------------------|---|-------------------------------------------
    2) ------------------|---|-------------------------------------------
    3) ------------------|---|-------------------------------------------
    4) - 5-------------5-|-X7|---------5----7---8---9---10---------------
    5) --5-------------5-|---|---------5----7---8---9---10---------------
    6) --3---6-7--3----3-|---|---0-----3----5---6---7----8---------------
    
    C5
    Si una chica viene y dice que te quiere curtir
            G5
    y se despide de su amiga con un beso de boca
    C5
    Dice que esta noche no te vas a corregir
    G5
    dice que esta noche no se va a dormir sola.
    
    D5                    G5
    Ella... ¿qué quiere de mí?
    
    
  • hola a todos, aca les dejo este solo
    
    
    PRIMER SOLO
    
    
    e|-------------------------------------------------------------------------
    B|----333<3><3><3><3>------------------------------------------------------
    G|-5b-----------------<5><5><5>--5ba-p3--------------------3-5-5ba-p3---3--
    D|--------------------------------------5-5--5p3-----3h4h5------------5----
    A|-----------------------------------------------5-5-----------------------
    E|-------------------------------------------------------------------------
    
    e|-------------------------------------------------------------------------
    B|-------6----6----6----6----6---------------------------------------------
    G|---3-3-5b-3-5b-3-5b-3-5b-3-5ba-3----------------3----3-5ba--5ba-3------3-
    D|-5--------------------------------5p3-----3h4h5----5-------------3h4h5---
    A|---------------------------------------5---------------------------------
    E|------------------------------------------------------------------
  • +
    ¡Colabora con nosotros!
    Envíanos tu versión de esta canción

Letra de Dos Nenas
Si una chica viene y dice que te quiere curtir
y se despide de su amiga con un beso de boca
Dice que esta noche no te vas a corregir
dice que esta noche no se va a dormir sola.
Ella... ¿qué quiere de mí?
Siiii
Media tortilla esta noche me voy a morfar
y no me voy a hacerme ya ningún problema por eso
Ella igual no quiere hacerlo por atrás
vamos a empezar por adelante primero.
Se le va parar el corazón
porque hace tiempo que no prueba un varón.
durante el punteo:
(repite igual que en la primer estrofa)
Si tiene suerte en la vida va a poder enlazar
con alguna hermafrodita que le pase la lengua
Por toda la vida ellas se van a amar
no van a tener hijos porque son dos nenas.
Dos nenas que nacieron así.
Dos nenas que se arreglan así.
durante el punteo:
¡¡¡¡¡¡¡¡¡¡¡¡¡¡¡¡¡¡¡¡¡¡¡¡¡¡¡¡AGUANTE EL PUNK Y EL ROCANROL!!!!!!!!!!!!!!!!!!!!!!!!!!!!!!!!!!!!!!!!




[Dos Nenas chords][Dos Nenas cifra]
© LaCuerda.net · aviso legal · privacidad · es · en · pt · contacto