Acordes de Guitarra » V »Viejas Locas » Botellas (Tab)

Botellas
Viejas Locas

Letras, Acordes y Tabs para Guitarra, Bajo y Ukulele

  • A5
    fuiste lo mejor para mi
    D5
    eres la chica mas fiel 
                          E5
    que un hombre puede tener
    
    A5
    desde que yo estoy con vos
    mi mente viajo a otra dimension
    E5
    vos sos mi unico amor
    D5                  A5    E5
    sos mi botella de alcohol
    
    D5
    y quiero estar reborracho
        A5
    caminando por ahi
    D5
    
  • A                       B-C-C#
    Fuiste lo mejor para mi
    D
    eres la chica mas fiel
                          E
    que un hombre puede tener
    A
    desde qu yo estoy con vos
                                 C#-D-D#
    mi mente viaja a otra dimension
    E
    vos sos mi unico amor
    D                    A    E
    sos mi botella de alcohol
    A
    cuando te veo en un bar
                             B-C-C#
    tu cuerpo quiero abrazar
    D                                       E
    o en algun recital tus labios quiero besar
    
  • SOLO
    
    e|----------------------------------------------7-5---5---5----
    B|----8-----8-----5----5----5----5----5----5----7---7---7------
    G|-s9----s9----7b---7b---7b---7b---7b---7b---------------------
    D|-------------------------------------------------------------
    A|-------------------------------------------------------------
    E|-------------------------------------------------------------
    
    e|-8-5---5---5-------------------------------------------------
    B|-8---7-----5---------------------------8----8-----10-12-10---
    G|---------7---7ba-5-7-5-7-5-7ba-5----s9---s9---s11------------
    D|-------------------------------------------------------------
    A|---------------------------------7---------------------------
    E|-------------------------------------------------------------
    
    e|-------------------------------------------------------------
    B|-12ba-p10----10------10-----10-10-----10-----10-10-----10----
    G|----------11-----12b----12b-------12b----12b-------12b-------
    D|------------------------------
  • +
    ¡Colabora con nosotros!
    Envíanos tu versión de esta canción

Letra de Botellas
fuiste lo mejor para mi
eres la chica mas fiel
que un hombre puede tener
desde que yo estoy con vos
mi mente viajo a otra dimension
vos sos mi unico amor
sos mi botella de alcohol
y quiero estar reborracho
caminando por ahi
y quiero estar reborracho
y no parar de reir
y si te tengo a mi lado
todo seguira mejor
vos sos mi unico amor
sos mi botella de alchol x2
sos mi botella de alchol x3
para dar un sonido mas fiel al original las notas en
quinta deben tocarse siguiendo este esquema:
el nueve entre parentesis significa que esa nota debe
alternarse con el 7 continuamente.
suerte




[Botellas chords][Botellas cifra]
© LaCuerda.net · aviso legal · privacidad · es · en · pt · contacto