Acordes de Guitarra » V »La Vela Puerca » Gente (Tab)

Gente
La Vela Puerca

Letras, Acordes y Tabs para Guitarra, Bajo y Ukulele

  • G
    Voy a reventar a los que se metan con mi gente
    Voy a darle palo después
    Voy a celebrar con el enroscado que se cuelgue
    Voy a darle vida después.
    C5
    Qué atrevidos los que dicen que no puedo ser feliz
                                                  G
    Qué bonito mis hermanos que pelean por vernos salir
    
    
    D5-C5-G5
    
    Y digan lo que digan
    
    Nadie nos va a voltear
    
    Porque atrás nuestro viene
                        D5
    Toda esa gente de verdad.
    
  • ES UN TEMA PIOLA , SAQUENLO QE ESTA BIEN Y ES FACIL.
    NO PUSE ALGUNOS FILLS QE TOCA, PERO LA IDEA ESTÁ
    SUERTE! . CUALQUIER COSA JUANNI.12@HOTMAIL.COM
    
    INTRO - EL BAJO ENTRA AL FINAL
    
    G|------------------------------------------
    D|------------------------------------------
    A|------------------------------------------
    E|-----------------------------------0-1-2-
    
    
    
    G|--------------------------------------------
    D|-----------2-0------------------2-0---------
    A|-----2-5-------3-2-3-2-0----2-5------3-2-3-2
    E|--3-----------------------3-----------------   X4
    
    
    "QUE ATREVIDOS LOS QE DICEN "
    
    
    G|------------------------------------------
    D|------------------------------------------
    A|----3-3-3-3-3-3-3-------------------------
    E|------------------------------------------
    
    
    
    G|--------------------------------------------
    D|-----------2-0------------------2-0---------
    A|-----2-5-------3-2-3-2-0----2-5------3-2-3-2
    E|--3-----------------------3-----------------
    
    " Y DIGAN LO QUE DIGAN"
    
    G|---------
  • +
    ¡Colabora con nosotros!
    Envíanos tu versión de esta canción

Letra de Gente
Voy a reventar a los que se metan con mi gente
Voy a darle palo después
Voy a celebrar con el enroscado que se cuelgue
Voy a darle vida después.
Qué atrevidos los que dicen que no puedo ser feliz
Qué bonito mis hermanos que pelean por vernos salir
Y digan lo que digan
Nadie nos va a voltear
Porque atrás nuestro viene
Toda esa gente de verdad.
Voy a boicotear a los que se creen que son muy vivos
Voy a demostrarles que no
Voy a presentarles quién soy con un solo latido
Les quiero ir barriendo su honor.
Qué atrevidos los que dicen que no puedo ser feliz
Qué bonito mis hermanos que pelean por vernos salir.
Y no hace falta plata
Pa´ que salga mejor
Hay que enroscarse un poco
Que la fiesta no terminó
Y digan lo que digan
Nadie nos va a voltear
Porque atrás nuestro viene
Toda esa gente de verdad.
el G que se toca en las estrofas es mejor hacerlo con cejilla,
para darle el sonido reggae/ska que tiene la cancion.
Este tema va dedicado a alan que es un capo!




[Gente chords][Gente cifra]
© LaCuerda.net · aviso legal · privacidad · es · en · pt · contacto
DINAMICO