Acordes de Guitarra » V »La Vela Puerca » Frágil (Tab)

Frágil
La Vela Puerca

Letras, Acordes y Tabs para Guitarra, Bajo y Ukulele

  • G           D
    Le asustan, los ruidos
    Am                    C
    y también la tranquilidad...
    Le gustan, los mimos
    pero respira en soledad...
    G                   D
    Se hace fuerte ahí, dónde no lo vi
    Am                                C
    (y se esconde, siempre que hay maldad...)
    El vive, escondido
    conversando con su piedad...
    Se queda, en vilo
    para no tener que soñar...
    y ahuyenta, sus ganas
    luego se las pone a buscar..
    Y se enreda ahí, dónde sí lo vi
    (y le encanta, no poder robar...)
    Se roba, a sí mismo
    para poder continuar, sin probar...
    
  • G - D/F# - F - C
    
    
    (1)
    G           D/F#
    Le asustan, los ruidos
    F                   C
    y también la tranquilidad...
    G          D/F#
    Le gustan, los mimos
    F                   C
    pero respira en soledad...
    G                   Bm
    Se hace fuerte ahí, dónde no lo vi
    F                                 C
    (y se esconde, siempre que hay maldad...)
    G        Bm
    El vive, escondido
    F                     C
    conversando con su piedad...
    
  • G - D/F# - F - C
    
    G           D/F#
    Le asustan, los ruidos
    F                   C
    y también la tranquilidad...
    G          D/F#
    Le gustan, los mimos
    F                   C
    pero respira en soledad...
    G                   D/F#
    Se hace fuerte ahí, dónde no lo vi
    F                                 C
    (y se esconde, siempre que hay maldad...)
    G        D/F#
    El vive, escondido
    F                     C
    conversando con su piedad...
    
    
    
  • 1er Solo
    
    e|--------------------------------------------------------------------
    B|-0-1-3------0-1--1-1-0-------------------3----------------3---------
    G|----------2-------------2-----0------2-4----4-2--0---2-4-----4-2--0-
    D|--------------------------4-----------------------------------------
    A|--------------------------------------------------------------------
    E|--------------------------------------------------------------------
    
    e|------------------------------------|
    B|------------------------------------|
    G|--2-4--0--------------------------- |
    D|------------2-3---2-3---------------|
    A|----------------------2-3--2--------|
    E|------------------------------3-----|
    
    
    e|---------------1---------3-------------------1--------3--|
    B|-0-1-3----1-3-------1-3----------0-1-3---1-3------1-3----|
    G|---------------------------------------------------------|
    D|---------------------------------------------------------|
    A|---------------------------------------------------------|
    E|--------------
  • +
    ¡Colabora con nosotros!
    Envíanos tu versión de esta canción

Letra de Frágil
Le asustan, los ruidos
y también la tranquilidad...
Le gustan, los mimos
pero respira en soledad...
Se hace fuerte ahí, dónde no lo vi
(y se esconde, siempre que hay maldad...)
El vive, escondido
conversando con su piedad...
Se queda, en vilo
para no tener que soñar...
y ahuyenta, sus ganas
luego se las pone a buscar..
Y se enreda ahí, dónde sí lo vi
(y le encanta, no poder robar...)
Se roba, a sí mismo
para poder continuar, sin probar...
Sólo una vez...
pudo reírse, de su contradicción
y de volar, como si fuera un pez
que ahora camina, cumpliendo una misión...
Sólo una vez...
pudo aguantarse, de querer existir
logró burlarse, del sentido común
y de las cosas que no saben morir...
Buscando, descanso
él, siempre encuentra un aluvión...
y sólo, se cubre
con los restos, de una canción...
Se remienda ahí, con su bisturí
(y de pronto, todo es ilusión)
Se abraza, se cuida
y se estrella como un avión..
sin razón.
Sólo una vez...
pudo reírse, de su contradicción
y de volar, como si fuera un pez
que ahora camina, cumpliendo una misión...
Sólo una vez...
pudo aguantarse, de querer existir
logró burlarse, del sentido común
y de las cosas que no saben morir...




[Frágil chords][Frágil cifra]
© LaCuerda.net · aviso legal · privacidad · es · en · pt · contacto