Tablatura para Guitarra de La Vela Puerca: Frágil
Conexión · Inscripción
Letras y Acordes
Pantalla Completa
Imprimir
Versión Texto
Añadir Favorito
Otras Versiones

Mostrar Diagramas
Desfile Automático
Manipular Acordes
Formato del Texto


Frágil(TAB)

La Vela Puerca

calidad:
vpue0474
AUTOR: Teysera
ALBUM: El Impulso (2007)
Enviado por Agu
1er Solo

e|--------------------------------------------------------------------
B|-0-1-3------0-1--1-1-0-------------------3----------------3---------
G|----------2-------------2-----0------2-4----4-2--0---2-4-----4-2--0-
D|--------------------------4-----------------------------------------
A|--------------------------------------------------------------------
E|--------------------------------------------------------------------

e|------------------------------------|
B|------------------------------------|
G|--2-4--0--------------------------- |
D|------------2-3---2-3---------------|
A|----------------------2-3--2--------|
E|------------------------------3-----|


e|---------------1---------3-------------------1--------3--|
B|-0-1-3----1-3-------1-3----------0-1-3---1-3------1-3----|
G|---------------------------------------------------------|
D|---------------------------------------------------------|
A|---------------------------------------------------------|
E|---------------------------------------------------------|


2do Solo
Esto tambien se escucha de fondo en los estribillos


e|---------2-0----------------------------|
B|-0-1-3-------3----1-0-1-0---1-3--4------|
G|----------------------------------------|
D|----------------------------------------|
A|----------------------------------------|
E|----------------------------------------|

e|---------2-0------------------------------------|
B|-0-1-3-------3----1-0-1-0--1-3--0-1-0------4----|
G|---------------------------------------2--------|
D|------------------------------------------------|
A|------------------------------------------------|
E|------------------------------------------------|
Este fichero es trabajo propio de su transcriptor y representa su interpretación personal de la canción. El material contenido en esta página es
para exclusivo uso privado, por lo que se prohibe su reproducción o retransmisión, así como su uso para fines comerciales.

© LaCuerda.net · Aviso Legal · Privacidad