Acordes de Guitarra » V »La Vela Puerca » Escobas (Tab)
  • Letra y Acordes
                                 A
                         ----0-------0-----
                         ----2-------2-----
                         ----2-------2-----
                         ----2-------2-----
                         -0-------0--------
                         ------------------
       Hacer este ritmo con A y con estos acordes: E-G-D
       Repetir 3 veces con acordes normales y 4 veces con
       acordes con cejilla.
    
         A             E
    De quién será la escoba que me lleve a ese
       G              D
    lugar normal que ya no puedo estar
         A           E
    La última vez volé tanto que pronto me
       G              D
    pase y no se volvi al mismo panal
    
    
  • Tablatura
    e|------------------------------------------------------------
    B|------------------------------------------------------------
    G|------------------------------------------------------------
    D|------------------------------------------------------------
    A|-12-12-12-12-11-11-11-11-9-9-9-7---5-5-5-5-4-4-4-4-2-2-2-0--
    E|------------------------------------------------------------
    
    e|-------------------------------------------------------------------------
    B|-------------------------------------------------------------------------
    G|-------------------------------------------------------------------------
    D|-------------------------------------------------------------------------
    A|-12-12-12-12-11-11-11-11-9-9-9-7---10-10-10-10-9-9-9-9-5-(dejar sonando)-
    E|-------------------------------------------------------------------------
    
    Introducción: A - E - G - D (con rasguido ska)
    
    1ra guitarra:
    e|--------------------------------------------------
    B|-----------------------------------------------8--
    G|------9---9-----7---7---7--------9---9-----7------
    
  • Tab p/Bajo
    Escobas - A Contraluz
    La Vela Puerca
    Tab: Bajo
    
    G--------------------------------------------------------------------
    D--------------------------------------------------------------------
    A--------------------------------------------------------------------
    E---5--------12-----------3-----------10-----------------------------  x2
    
    G--------------------------------------------------------------------
    D--------------------------------------------------------------------
    A-----------------------19--17--16-----------------------------------
    E---17-----------17-------------------17---12------------------------
    
    
    G--------------------------------------------------------------------
    D--------------------------------------------------------------------
    A--------0/7---0/10----0/5-------------0/7---0/10----0/5-------------
    E---5----------------------------0/5---------------------------------  X2
    
    "De quien sera...?"
    
    G--------------------------------------------------------------------
    D--------
  • +
    ¡Colabora con nosotros!
    Envíanos tu versión de esta canción

Letra de Escobas
Hacer este ritmo con A y con estos acordes: E-G-D
Repetir 3 veces con acordes normales y 4 veces con
acordes con cejilla.
De quién será la escoba que me lleve a ese
lugar normal que ya no puedo estar
La última vez volé tanto que pronto me
pase y no se volvi al mismo panal
Me desperté sudado y decidi pasar a
visitar a mi colega Juan
Cuando llegue me dijo hay que linda que estas
hoy mujer decime a donde vas
Le respondi que ahora mi escoba no quiere volar
Y que toda esa gente mala no me quiere oir
Le pregunté si me prestaba la de ese lugar
Me contestó sinceramente no quiero morir
Que siglo es hoy pregunté por costumbre y para
que reloj si siempre son las diez
Total yo se que hoy de noche es la fiesta y para
que saber donde deje los pies
Me dicen todos que nunca podré salir de aquí
Pero no saben que el secreto vuelve a estar en paz
Y arranca sola mi cabeza y todo es para mi
Y ese momento iluminado dice donde estas
Y eso ni yo lo quiero sabe eee eeer
No se porque siempre se pone oscuro y
escuchó esa voz que siempre me habla bien
Pa' mi que es esa bola brillante que una
vez al mes visita mi kermes
De quién será la escoba que me lleve a ese
lugar normal que ya no puedo estar
La última vez volé tanto que pronto me
pase y no se volvi al mismo panal
Me dicen todos que nunca podré salir de aquí
Pero no saben que el secreto vuelve a estar en paz
Y arranca sola mi cabeza y todo es para mi
Y ese momento iluminado dice donde estas
Y eso ni yo lo quiero sabe eee eeer
Ni sabe eee eeer
7-7-(Ahora lento)-5-4-2-4-2-4-2-4-2-4-LaM(POWER CHORD)
AGUANTE LA VELA, LOS BUITRES, ESTÓMAGOS, Y TODO EL
ROCK URUGUAYO.
-POWER CHORD: Power chord es tocar la 6ta y 5ta cuerda
en los acordes con cejilla.
-GHOST NOTE: Es levantar un poco la mano izquierda si
se es diestro (y vice-versa) haciendo contacto con
las cuerdas pero sin que salga el sonido.
LA TRANSCRIPCIÓN DE ESCOBAS FUE UNA PRODUCCIÓN DE
SEBASTIÁN FEIRRÉS Y RODRIGO LUJAMBIO



© LaCuerda.net · aviso legal · privacidad · contacto