Acordes de Guitarra » V »La Vela Puerca » El Señor (Tab)
  • Letra y Acordes
    E
    
    Am         G       F
    La última joda la paga el “Señor”
    Am         G          F
    que le divierten las penas ajenas de hoy.
    Am         G         F
    La última moda la impone el “Señor”
    Am       G        F
    marcándome la tendencia demencia de hoy.
    
    Am        G           C        D
    El tiene todo lo que hoy precisás
    Am       G         F
    y los infantes se parten el alma por más.
    Am        G        C           D
    El te cautiva mostrando a su dios
    Am            G       F                E
    que no es el tuyo pero juega para los dos.
    
    
  • Tablatura
    E
    
    Am         G       F
    La última joda la paga el “Señor”
    Am         G          F
    que le divierten las penas ajenas de hoy.
    Am         G         F
    La última moda la impone el “Señor”
    Am       G        F
    marcándome la tendencia demencia de hoy.
    
    Am        G           C        D
    El tiene todo lo que hoy precisás
    Am       G         F
    y los infantes se parten el alma por más.
    Am        G        C           D
    El te cautiva mostrando a su dios
    Am            G       F                E
    que no es el tuyo pero juega para los dos.
    
    
  • Tablatura
    Esta es la primer trascripción que hago y no
    soy muy experto en esto pero me animé y creo que algo salió…
    
    Solo
    
    1°:------------------------------------------|
    2°:------------------------------------------|
    3°:------------------------------------------|
    4°:-----2-3---2-3-0---7-5-3-2-0--------------|
    5°:---3-----1--------------------------------|
    6°:------------------------------------------|
    
    1°:------------------------------------------|
    2°:------------------------------------------|
    3°:------------------------------------------|
    4°:-----2-3---2-3-0---3----------------------|
    5°:---3-----1--------------------------------|
    6°:------------------------------------------|
    
    1°:------------------------------------------|
    2°:------------------------------------------|
    3°:------------------------------------------|
    4°:-----2-3---2-3-0---7-5-3-2-0--------------|
    5°:---3-----1--------------------------------|
    6°:------------------------------------------|
    
    1°:------------
  • Tab p/Bajo
    hola a todos
    les dejo otro temaso de la vela!!!
    es facilisimo  lo subi porq taba al pedo nada mas  ejejeje
    
    Intro: 00:00
    G|--------------|
    D|--------------|
    A|-0/7--7-7-7-7-|
    E|--------------|
    
    Verso:(I) 00:03 "La última joda..."
    G|----------------------------------|
    D|----------------------------------|
    A|----------------------------------|
    E|-5-5-5-5/3-3-3-3/1-1-1-1-1-1-1-1/-|    x4
    
          (II) 00:20 "El tiene todo..."
    G|-----------------------------------------------------------------
    D|-----------------------------------------------------------------
    A|-----------------3-3-3-3/5-5-5-5----------------/8-8-8-8-8-8-8-8-
    E|-5-5-5-5/3-3-3-3-----------------5-5-5-5/3-3-3-3-----------------
    
    -----------------------------------------------------------------
    -----------------------------------------------------------------
    -----------------3-3-3-3/5-5-5-5---------------------------------
    -5-5-5-5/3-3-3-3-----------------5-5-5-5/3-3-3-3/1-1-1-1-1-1-1-1-
    
    ---------------------------------|
    -
  • Tab p/Bajo
    El Señor
    Muy simple
    Al principio hay un arrastre desde
    E-1 Hasta E-12
    
    G--------------------------------
    D--------------------------------     x4
    A--------------------------------
    E--555----333----111111----------
    
    
    G----------------------------------------------------
    D----------------------------------------------------    x2
    A----------------333----555--------------------------
    E--555----333------------------555----333----111111--
    
    
    G--------------------------------
    D--------------------------------     x4
    A--------------------------------
    E--555----333----111111----------
    
    
    G----------------------------------------------------
    D----------------------------------------------------
    A----------------333----555--------------------------
    E--555----333------------------555----333----111111--
    
    G----------------------------------------------------
    D----------------------------------------------------
    A----------------333----555--------------------------
    E--555----333------------------555-
  • +
    ¡Colabora con nosotros!
    Envíanos tu versión de esta canción

Letra de El Señor
La última joda la paga el “Señor”
que le divierten las penas ajenas de hoy.
La última moda la impone el “Señor”
marcándome la tendencia demencia de hoy.
El tiene todo lo que hoy precisás
y los infantes se parten el alma por más.
El te cautiva mostrando a su dios
que no es el tuyo pero juega para los dos.
La última vida la pide el “Señor”
y te perdona lo malo de tu corazón.
La última miga la roba el “Señor”
alimentando su rabia y su falta de amor.
Esa clientela de ciega se da
y va tragando la mierda de toda cuidad.
Ese aparato te invita a morir
y te reduce a lo simple de nunca sufrir.
Y es así:
o te rebelás,
o te consumís,
cerrando los ojos no sirve aplaudir.
La hora del miedo parece llegar
y aquí no vale pensar...
Y cuándo quieras soñar
sólo habrá pesadillas,
o cuando quieras volar
quedarás de rodillas.
Ese camino te exige mentir
o te reduce a lo triste de sobrevivir.
Esa montaña se va a derrumbar
encima de todo aquél que te quiera dañar.
Y es así:
o te rebelás,
o te consumís,
cerrando los ojos no sirve aplaudir.
La hora del miedo parece llegar
y aquí no vale pensar...
*
El acorde de "pedromagnus@hotmail.com" esta
perfecto(te felicito chabon).
Vi que no puso el solo así que trate de sacarlo
y lo saque no se si bien eso me
lo dicen ustedes a través del voto.
Es fácil tocarlo inténtenlo que es "pan comido" jejejeje
Cualquier cosa manden mail.



© LaCuerda.net · aviso legal · privacidad · contacto