Acordes de Guitarra » U »El Ultimo ke zierre » Yo tambien puedo ser malo (Tab)

Yo tambien puedo ser malo
El Ultimo ke zierre

Letras, Notas, Punteos, Tablaturas y Acordes de Guitarra (Tabs & Chords)

  • Letra y Acordes
    E5 G5 B5 'E5' (Mientras suena el punteo)
    
    E------------------
    B------------------
    G----3/4--3/4------
    D-------------2----
    A------------------
    E------------------
    +
    
    E5            G5
    Todo mi cielo se oscureció
    B5            E6
    y a mis oidos vino una voz
    E5             G5
    me dijo muerto se esta mejor
    B5            E6
    que acorralado en un rincón.
    
    E5             G5 E5 G5
    
  • Tablatura
    E G B Em  esto va para todo lo ke viene a continuacion
    
    Todo mi cielo, se oscurecio
    Y amis oidos vino una voz
    Me dijo muerto se esta mejor
    ke acorralado en un rincón
    
    ahora hace esto en todo el coro
    E G E C B
    La base del tema es todo el rato asi
    Solo:
    
    e---------------------------------------------------------------
    b---------------------------------------------------------------
    g-14´-12------12-14-12----12-------------12------------12-------
    d--------14º-----------14----14-12---------14-12--12-14---------
    a----------------------------------14-----------14--------------
    e---------------------------------------------------------------
    
    
    
  • Tab p/Bajo
    Notas Base: Estrofa: Mi – Sol – Si – Mi(más alto)
    Coro: Mi/Sol – Do – Si
    
    (Introducción en vivo)
    1|--------------------------------------------------|
    2|--------------------------------------------------|
    3|--------------------------------------------------|
    4|-0-3---0-3---0-3---0-3---0-3---0-3---0-3---0-3----|
    
    Introducción:
    1|------------------------------------------|
    2|------------------------------------------|  (x2)
    3|-------------------------------77777777---|
    4|-00000000--33333333--77777777-------------|
    
    Estrofa:
    1|------------------------------------------|
    2|------------------------------------------|  (x2)
    3|-------------------------------77777777---|
    4|-00000000--33333333--77777777-------------|
    
    Coro:
    1|----------------------|
    2|----------------------|  (x3)
    3|----------3333-2222---|
    4|-0000030--------------|
    
    1|-----------------------------|
    2|-----------------------------|
    3|-3333-2222-3333-2222--3--2---|
    4|-----------------------------|
    
    Estrofa
    Coro
    Solo (acom
  • +
    ¡Colabora con nosotros!
    Envíanos tu versión de esta canción

Letra de Yo tambien puedo ser malo
+
Todo mi cielo se oscureció
y a mis oidos vino una voz
me dijo muerto se esta mejor
que acorralado en un rincón.
Mira a tu alrededor,
nadie es mejor que tú.
Mira a tu alrededor,
nadie es mejor que tú,
nadie es mejor que tú,
Yo seré tu abogado.
bUENO COMENTARIOS,CITAS AH Y SOBRE TODO SI TENEIS MAS
CANCIONES DE reincidentes,extremoduro,platero y tu,
el ultimo ke zierre.la polla,koma,etc...
A mi direccion de correo por fa plis,asi me animare
a poner mas tabs.



© LaCuerda.net · Aviso Legal · Privacidad