Acordes de Guitarra » U »El Ultimo ke zierre » Un mareo que me ha dao (Tab)

Un mareo que me ha dao
El Ultimo ke zierre

  • Letra y Acordes
    C                    Am                    C                Am
    \-----------------------------------------------------------------------------------------
    \--------5-h-7---------------------7--5--7------5-h-7------7----7-5-7----------------
    \--------------------5---------7--5-----------------------5----------------5------------
    \-------------------------5--4-----------------------------------------------------------
    \-----------------------------------------------------------------------------------------
    \-----------------------------------------------------------------------------------------
    
    
    Intro:
    C-Am-C-Am
    
    C                     Am
      Hoy me voy a desahogar,
    C                      Am
      vomitaré sobre sus coches
    C                  Am
      y mis entrañas limpiar
    C                    Am
      de tantísimos reproches.
    
  • Tablatura
                C         A              C         A
    e|--------------------------------------------------------|
    B|--------------------------------------------------------|
    G|-----------------0----5-5-4-2-0-2---------0-------------|
    D|-------------0-2----------------------0-2---------------|
    A|-3-2-0-2----------------------------------------3-2-0-2-|
    E|--------------------------------------------------------
    
    ESTROFA:
       C   A            C   A        C   A             C  A
    e|------------------------------------------------------------|
    B|------------------------------------------------------------|
    G|-------5-4-2-0-2--------5-4-0--------5-4-4-2-0-2------5-4-0-|
    D|------------------------------------------------------------|
    A|------------------------------------------------------------|
    E|------------------------------------------------------------|
    
    entre estrofa i estrofa se toka lo mismo ke en el principio
    
    C                    A
    
  • +
    ¡Colabora con nosotros!
    Envíanos tu versión de esta canción

Letra de Un mareo que me ha dao
Hoy me voy a desahogar,
vomitaré sobre sus coches
y mis entrañas limpiar
de tantísimos reproches.
[Punteado Intro]
No me gusta levantar,
Mi cuerpo para que otros
bajen tanto mi moral
que me estoy volviendo loco.
*Con un poko de distorsion
Pero prefieren pensar
que mi vida esta perdida
i no pretendo luchar
por causa tan aburrida.
Respiro bien si estoy fumao,
no soy feliz en sus trabajos,
ni se reír por las mañanas,
¿que puedo hacer si estoy cansado? Cansadooo…
Y un mareo que me ha dao,
un mareo que me ha avisao.
Déjate ya ese trabajo,
vale ya de estar debajo. Debajoooo…
Ke disfruteis de esta kanzion k es la ostia!
SRM PAWA!



© LaCuerda.net · aviso legal · privacidad · contacto
DINAMICO