Acordes de Guitarra » U »El Ultimo ke zierre » Veneno (Tab)
  • Tablatura
      Bm                 G
    e-------------------------------------|
    B----------3--------------------------|
    G--------4----4------------4----------|
    D------4-----------------5----5-------| Arpegio base del tema...
    A----2----------2-0----5----------0---|
    E--------------------3----------3-----|
    
    Punteo del intro:
    e------9-7-----------9-7--15-------|
    B----x-------10-8------------------|
    G--x-------------------------------|
    Dx---------------------------------|
    A----------------------------------|
    E----------------------------------|
    
    e---12----9p7---7----------------|
    B------------10-----10b----------|
    G--------------------------------|
    D--------------------------------|
    
  • Tablatura
      Bm                 G
    e-------------------------------------
    B----------3--------------------------
    G--------4---4-------------4----------
    D------4-----------------5---5-------- Arpegio x2
    A----2----------2-0----5---------0----
    E--------------------3---------3------
    
    entra un punteo simple, mientras suena el arpegio base
    unas 4 veces
    
    e------9-7-----------9-7--11-------12---9p7---7-----
    B----x-------9-7----------------------------9-------
    G--x--------------------------------------------7/9-
    D---------------------------------------------------
    A---------------------------------------------------
    E---------------------------------------------------
    
    Verso:( solo el Bajo)
    Bm              G
    
  • Tab p/Bajo
    pelaobajo6@gmail.com
    
    [1]Intro guitarra
    [2]Segunda guitarra
    
    
    
     [3]Bajo
     4/4
    |----------------|----------------|
    |----------------|------------2---|
    |2-----2---------|2-----2---------|
    |--------3-----3-|--------3-------|
    
    [4] primer verso, igual que [3]
    
    [5] "..no me preguntes
    |----------------|----------------|
    |----------------|----------------|
    |2-----2---------|2-----2---------|
    |--------3-----3-|--------3-------|
    
    [6] guitarra que da el paso al segundo verso, el bajo va asi
    |----------------|----------------|
    |------------2---|------------2---|
    |2-----2---------|2--2--2---------|
    |--------3------3|--------3------X|
                         *                           *: va
                                          despues del
                                          platillo de la bateria
                                          que marca la entrada del
                                          compas
    
    [7] segundo verso ".. la lucidez
    |----------------|----------------|
    |----------------|----------
  • +
    ¡Colabora con nosotros!
    Envíanos tu versión de esta canción

Letra de Veneno
Punteo del intro:
no me perguntes qué hice entonces
cuando la noche me protegia acorde ragueado)
no me perguntes qué pretendia
cuando el dolor lo perseguia
la lucidez sigue conmigo
maldita sea como un castigo 6ª cuerda con slide donde
Abrir los ojos me hace daño distorsion)
maldita sea voy ha Cerrarlos
lleno mi cuerpo dia tras dia
lleno mi cuerpo de porquerias
y reventar!!! es lo que busco
y reventar!!! es lo que busco
no creo en el amor malgastas tu calor
no creo en el amor malgastas tu caloor
y reventar!!! es lo que busco
y reventar!!! es lo que busco
no me despirtes si estoy soñando
no me entretengas si estoy viajando
no me des nada que no te pida
no me des nada si no es veneno
no me des nada!!! si no es veneno
no me des nada!!! si no es veneno
no me des nada!!! si no es veneno
no me des nada
Hay ta totalmente wena 100% comprobada



© LaCuerda.net · aviso legal · privacidad · contacto