Acordes de Guitarra » U »El Ultimo ke zierre » Insurgente (Tab)
  • Letra y Acordes
    F#         D
    Muerto el perro pensaras
    A          E
    Que se acabo la rabia
    F#           D
    Sere un perro rabioso mas
    A        E         E* E*
    un perro muerto mas
    F#          D
    Tierra quemada,
    A               E
    es vuestro planteamiento
    F#         D
    Sere tierra labrada
    A       A*     E*
    o tierra desolada
    
    
    F#*  D*                     F#*  D*
               No voy a ser el perro
    
  • Tablatura
        gtr 1
    --5-5-4-5-5-5-4-4-4-4--
    --5-5-4-5-5-5-4-4-4-4--
    ----------------------- x4
    -----------------------
    -----------------------
    -----------------------
    
        gtr2
    ---------------------------------------------------
    ---------------------------------------------------
    -----------------7-7-7-7-7-7-7-7-------------------
    -4-4-4-4-4-4-4-4-7-7-7-7-7-7-7-7--7-7-7-7-7-7-7-7--
    -4-4-4-4-4-4-4-4-5-5-5-5-5-5-5-5--7-7-7-7-7-7-7-7--
    -2-2-2-2-2-2-2-2------------------5-5-5-5-5-5-5-5--
    
    
    
    -----------------
    -----------------
    -----------------
    -2-2-2-2-2-2-2-2- todo esto x2
    -2-2-2-2-2-2-2-2-
    -0-0-0-0-0-0-0-0-
    
    
     eso es el intro
    
    desde aca es pm
    
    ---------------------------------------------------
    ---------------------------------------------------
    -----------------7-7-7-7-7-7-7-7-------------------
    -4-4-4-4-4-4-4-4-7-7-7-7-7-7-7-7--7-7-7-7-7-7-7-7--
    -4-4-4-4-4-4-4-4-5-5-5-5-5-5-5-5--7-7-7-7-7-7-7-7--
    -2-2-2-2-2-2-2-2------------------5-5-5-5-5-5-5-5--
    muerto el perro pensaras que se acavo la rabia s
  • +
    ¡Colabora con nosotros!
    Envíanos tu versión de esta canción

Letra de Insurgente
Muerto el perro pensaras
Que se acabo la rabia
Sere un perro rabioso mas
un perro muerto mas
Tierra quemada,
es vuestro planteamiento
Sere tierra labrada
o tierra desolada
No voy a ser el perro
que guardara tu sombra
Si no me quieres en libre,
tendras que verme muerto
Esto va mientras suena el punteo F#* D* A* E*
No habra futuro,no
Si no hay justicia de verdad
si llenas de alambrada
lo que nunca ha sido tuyo
Estais enfernos y enfermais
este jodido mundo
estamos artos y ardera
este jodido mundo
Dices que soy el diablo
y voy a ser tu infierno
mas si no soy tu reo
sere yo tu verdugo
Mientras suena el punteo...F#* D* A* E*
En nombre de mis padres
y en el de mis hermanos
en nombre de las ruinas
que nos han enterrado
en nombre de las ruinas
que son referencias
en nombre de las ruinas
QUE VAN A LA-PI-DAR-TE!!
Cervan



© LaCuerda.net · aviso legal · privacidad · contacto
DINAMICO