Acordes de Guitarra » T »los Tres » Jazz Huachaca (Tab)

Jazz Huachaca
los Tres

Letras, Acordes y Tabs para Guitarra, Bajo y Ukulele

  • e--------------------------------------------------------------------------8-
    B---------------------------------12-----------------------------------------
    G-7-8-9-7-8-9-7-8-9-7-8-9-7-8-9-/-12----7-8-9-7-8-9-7-8-9-7-8-9-7-8-9--9-9---
    D---------------------------------12-----------------------------------------
    A----------------------------------------------------------------------------
    E----------------------------------------------------------------------------
    
    e--------------------------------------------8---
    B------------------------------------------------
    G-9-10-11-9-10-11-9-10-11-9-10-11-9-10-11--9-----
    D------------------------------------------------
    A------------------------------------------------
    E------------------------------------------------
    
    e------------------------------------------------
    B---------------------------------12-------------
    G-7-8-9-7-8-9-7-8-9-7-8-9-7-8-9-/-12-------------
    D---------------------------------12-------------
    A------------------------------------------------
    E------------------------------------------------
    
  • G:  x5543x
    D9: x5455x
    C9: x3233x
    E:  022100
    Am: x02210
    A7: x02020
    D:  xx0232
    D7: xx0212
    
    Comienza con el bajo y la 2da guitarra haciendo:
    
    e------------------------
    B------------------------
    G------------------------
    D------------------------    x3  Ustedes le ponen el estilo ahí.
    A------------------------
    E-3-x-7-x-5-x-10-10-10---
    
    
    
    
  • +
    ¡Colabora con nosotros!
    Envíanos tu versión de esta canción

Letra de Jazz Huachaca
***********************************************************************
***********************************************************************
Bueno, creo que eso es todo , los acordes luego
los saco y los mando(algún día).




[Jazz Huachaca chords][Jazz Huachaca cifra]
© LaCuerda.net · aviso legal · privacidad · es · en · pt · contacto