Acordes de Guitarra » T »los Tres » El Arrepentido (Tab)

El Arrepentido
los Tres

Letras, Acordes y Tabs para Guitarra, Bajo y Ukulele

  • LA                 MI7
    Caramba que noche tan silenciosa
              LA            MI7  
    caramba me tienen detrás las rejas
    LA                MI7
    me matan el veiticinco
             LA         MI7
    escucha madre mis quejas.
    
              LA
    Estoy arrepentido
              MI7
    tenga presente
                  LA
    sólo queda el indulto 
              MI7
    del presidente si
    LA          MI7
    deme el perdón
                   LA
    
  • e-----------------|---------------|----------------------|
    b-----------------|---------------|----------------------|
    g-----6-----------|---------------|-----6--------------9-|
    d-7-7---9-7-6-----|----4----------|-7-7---9-7-6-----6-9--|
    a-------------9-7-|-5-5--7-5-4----|-------------9-7------|
    E-----------------|------------7-5|----------------------|
    
    e---------------|
    b---------------|
    g---------------|
    d---2---4---6---|  La-Mi X8
    a---------------|
    E-0---2---4---5-|
    
    Caramba Que Noche Tan Silenciosa
       LA                            MI
    Caramba Me Tienen Detras Las Rejejas
            LA                         MI
    Caramba Me Tienen Detras Las Rejejas
            LA                         MI
    
  • E|-------------------------|
    B|-------------------------|
    G|-------------------------|
    D|-------------------------|
    A|---2-2---4-6-------------|
    E|---0-0---2-4-------------|
    
    Guitarra 1: A-E-A-E (mientras la guitarra 2 hace lo suyo)
    
    Guitarra 2:
                A           E
    E|----------5----5---5|-------|
    B|------5-5-5--5-5-5-5|-9-8-9-|
    G|------6-6----6---6--|-9-8-9-|
    D|--------------------|-------|
    A|--------------------|-------|
    E|--------------------|-------|
                  E           A         (x2)
    E|------------------7--|-5-4--|
    B|----------9-9-9-9-9-9|-5-4--|    /
    
  • +
    ¡Colabora con nosotros!
    Envíanos tu versión de esta canción

Letra de El Arrepentido
Caramba que noche tan silenciosa
caramba me tienen detrás las rejas
me matan el veiticinco
escucha madre mis quejas.
Estoy arrepentido
tenga presente
sólo queda el indulto
del presidente si
deme el perdón
quiero morir tranquilo
en la prisión
Se apagó la guitarra
del viejo Parra.




[El Arrepentido chords][El Arrepentido cifra]
© LaCuerda.net · aviso legal · privacidad · es · en · pt · contacto