Acordes de Guitarra » T »Tommy Torres » Como Olvidar (Tab)

Como Olvidar
Tommy Torres

  • Letra y Acordes
    Am     C              G
    Desde que te fuiste aqui la situacion
    Am     C         G
    a cambiado para mal.
    Am     C              G       
    Desde que te fuistes para estar con el
    Am      C            G
    se que sufres tu también
    
    
    Am       C             G
    Te marchaste en busca de un lugar mejor
    Am       C         G
    que oportuna desición
    Am      C            G
    te marchaste apenas sin mirar atras
    Am      C            G
    ponte tu en mi situacion
             
    
    
  • Letra y Acordes
    Bm          D 
      Desde que te fuiste
        A         E A
    aqui la situacion
    Bm        D          A E
      a cambiado para mal.
    Bm       D
      Desde que te fuistes
      A              E  A
    para estar con el
    F#m       G#m             A
      se que sufres tu también
    
    
    Bm      D
      Te marchaste en busca
    A                E  A
    de un lugar mejor
    Bm          D          A     E  A
      que oportuna decición
    
  • Letra y Acordes
     SIm  RE 
    Desde que te fuiste
     LA           MI 
    aqui la situacion
    SIm  RE         LA   MI 
    a cambiado para mal.
     SIm  RE 
    Desde que te fuistes
     LA            MI 
    para estar con el
    LA      MI          LA 
    se que sufres tu también
    
    SIm   RE 
    Te marchaste en busca
    LA           MI 
    de un lugar mejor
    SIm      RE        LA    MI 
    que oportuna decición
    SIm    RE           LA         MI 
    
  • Tablatura
    e-|--------------------------------------------------|
    B-|-2/3/2-0-----3/5------7-----5---3---2/3/2-0-------|
    G-|--------2--1------1-2---1-2-----2-----------2-2---|
    D-|--------------------------------------------------|
    A-|--------------------------------------------------|
    E-|--------------------------------------------------|
    
    Estrofa
             Bm          D     A    A  E  A
    e-|-------------------2--------------------------|
    B-|----------3--------3----2--3--2--0--2---------|
    G-|----------4------2---2--2--2--2--1--2---------|
    D-|--------4---4--0--------2-----2--2--2---------|
    A-|------2-----------------0--------2------------|
    E-|--2-5-----------------------------------------|
             Desde que ..................
    
             Bm          D      A    E  A
    e-|-------------------2--------------------------|
    B-|----------3--------3-------2--0--2------------|
    
  • Tablatura
           B.---2/3------------- ----------5--3.-3-2/3/2-------------2-
           G.--------4-2-1-------1/2.--2/4-----------------4-2-2----2--
           D.------------------4-----------------------------------2---
           A.-----------------------------------------------------0----
           E.----------------------------------------------------------
    
        (x)                (y)
    D.----------     B.----------
    A.-----2----     G.-2h4------
    E. -0/2-----     D.-----4-2--
    
    (x)    Bm       D        A     E
    e.--------------------------------0----
    B.-----3--------3--------2-----0-------
    G.------4-----2---2------2-----1-------
    D.---4------0----------2---------------
    A.-2-----------------0---0-----2-------
    E.-------------------------------------
    Desde que te fuiste aquí la situación
    
    
  • +
    ¡Colabora con nosotros!
    Envíanos tu versión de esta canción

Letra de Como Olvidar
Desde que te fuiste
aqui la situacion
a cambiado para mal.
Desde que te fuistes
para estar con el
se que sufres tu también
Te marchaste en busca
de un lugar mejor
que oportuna decición
te marchaste apenas sin mirar atras
ponte tu en mi situacion
Como olvidar tus ojos
si me miran desde el cuadro
que colgaste en la pared
Como olvidar, tu nombre
si lo llevo aqui
quemandome la piel
LAS PROXIMAS DOS ESTROFAS SON LOS MISMOS TONOS
LOS COROS TAMBIEN AL FINAL DICE
Como olvidar tus ojos
como olvidar tu tu nombre
y aunque no pueda olvidarte se muy bien
y aunque te hagas la importante yo se que
y aunque trates de negarlo se muy bien
que tu también piensas en mi
como olvidar tu tus ojos
como olvidar tu nombre
como olvidar tu cuerpo uuuu uuuuu
TAMBIEN SE PUEDE TOCAR LA CANCIÓN EN LAm CON SORDINA EN EL SEGUNDA TRASTRE



© LaCuerda.net · aviso legal · privacidad · contacto