Acordes de Guitarra » T »Tommy Torres » Imparable (Tab)

Imparable
Tommy Torres

  • Letra y Acordes
     C            G
    Ágil como el agua
    G                F
    Fuerte como el viento
    F               C
    Duro como el tiempo
    
    C               G
    Me niegas la entrada
    G              F
    Una y tantas veces
    F               C
    que vivo del intento
    
    
             F
    y es que soy
    G            F
    Imparable, contigo
        G                     F
    
  • Letra y Acordes
    C              G
    agil como el agua
    
                      F
    fuerte como el viento
    
                     C
    duro como el tiempo
    
    
    C                 G
    Me niegas la entrada
    
                    F
    una y tantas veces
    
                      C
    que vivo del intento
    
    
    
  • Tablatura
       C                                                  G
    
    E--0--------------------------------------------------3----
    B--1----1------0----(piano nota sol(G) varias veces)--3----
    G--0--0---0--0----------------------------------------0----
    D--2--------------------------------------------------0----
    A--3--------------------------------------------------2----
    E--x--------------------------------------------------3----
    
       C                                                   G
    
    E--0---------------------------------------------------3---
    B--1----1------0-1---(piano nota sol(G) varias veces)--3---
    G--0--0---0--0-----------------------------------------0---
    D--2---------------------------------------------------0---
    A--3---------------------------------------------------2---
    E--x---------------------------------------------------3---
    
    
    C            G
    
  • +
    ¡Colabora con nosotros!
    Envíanos tu versión de esta canción

Letra de Imparable
Ágil como el agua
Fuerte como el viento
Duro como el tiempo
Me niegas la entrada
Una y tantas veces
que vivo del intento
y es que soy
Imparable, contigo
Indomable es lo que siento
Pero es intocable tu corazón
Tanto que te busco
Tanto que te alejo
Tanto que no quiero
Son tantas las hormonas
que le ganan la batalla
a todos mis miedos
y es que soy
Imparable, contigo
Indomable es lo que siento
Pero es intocable tu corazóooooooooon
Tu corazóoooooon
Imparable, por ti soy
Inexplicable sentimiento
Pero inalcanzable es tu corazóOOOOn
pero soy
Imparable, contigo
Indomable es lo que siento
Pero es intocable tu corazóoooon
Tu corazón, tu corazón.



© LaCuerda.net · aviso legal · privacidad · contacto