Acordes de Guitarra » S »Soda Stereo » Nada Personal (Tab)

Nada Personal
Soda Stereo

Letras, Acordes y Tabs para Guitarra, Bajo y Ukulele

  • E                   Bsus7
    Comunicación sin emoción.
    E                     Bsus7
    Una voz en off, con expresión deforme.
    G#m
    Busco algo que me saque este mareo
    E                              G#m
    busco calor en esa imagen de video.
    
    F#    E
    Nada, nada personal.
    D#m   E
    Nada, nada personal.
    
    
    Ella no puede pensar, está aburrida
    de tanto simular, cayó dormida.
    Busco en TV algun mensaje entre líneas
    busco alguien que sacuda mi cabeza,
    y no encuentro nada.
    
  • A) MI                   SI7 
    Comunicación sin emoción
    una voz en off con expresión deforme
    
    B) E|-----------11-11----------9-9-------------11-11-----------9-9----|
       B|--9--11--9-9-9---9--11--9-9-9----9--11--9-9--9---9--11--9-9-9----|
       G|.-9--11--9-9-9---9--11--9-9-9----8--10--8-8--8---8--10--8-8-8---.|
       D|.-9--11--9-------9--11--9--------9--11--9--------9--11--9-------.|
       A|-----------------------------------------------------------------|
       E|-----------------------------------------------------------------|
    busco algo que me saque este mareo
    busco calor en esa imagen de video
    
    C)Fa# MI
    Nada, nada personal
    RE#m  MI
    nada, nada personal
    
    A) Ella no puede pensar, esta aburrida
    de tanto simular cayó dormida
    
  • INTRO:
    e|--------------------------------|
    B|--------------------------------|
    G|--------------------------------|(x varias)
    D|--------------------------------|
    A|---4-4-----6-6-----2-2----------|
    E|-------4-4-----4-4------4-4-2---|
    
    VERSO:
    e|---------------0----------------------0--------------|
    B|-------------0----------0----------0------------0----|
    G|-----------1----------1----2-----2-----------2-------|
    D|--------2---------2-----------4-----------4----------|
    A|-----------------------------------------------------|
    E|--0--------------------------------------------------|
           comunicacion sin emocion
    
    e|---------------0--------------------------------0-----|
    B|-------------0----------------0--------------0--------|
    G|-----------1--------------1------2---------2----------|
    D|-1------2-------------2-----------------4-------------|
    A|------------------------------------------------------|
    E|------------------------------------------------------|
         una voz en off    con expresion
  • Después de tanto buscar y buscar no encontré 
    nunca el tab. De bajo de nada personal así que 
    lo hice yo con el sudor de mi frente
    Jaa, bueno aquí va...
    
    Intro
    
    -------------------------------------¦
    -------------------------------------¦
    ----3------3-------3-------3---------¦
    -0-----0-------0-------0------0------¦
    
    Comunicación sin emoción
    Una voz en off con expresión….deforme!
    --------------------¦
    --------------------¦
    ----3------3--------¦
    -------0-------0----¦
    
    Busco algo que me saque este mareo
    ---------------------------------------¦
    ---------------------------------------¦
    ---------------------------------------¦
    -0-0-0-0-0-0-2-4-4-4-4-4-4-4-----------¦
    
    Busco calor en esa imagen de video 
    ---------------------------------------¦
    ---------------------------------------¦
    ---------------------------------------¦
    -0-0-0-0-0-0-2-4-4-4-4-4-4-4-----------¦
    
    Coro…
    Nadaaa, oh oh oh, nada personal 
    oh oh oh
    nadaaa nada personal
    
  • +
    ¡Colabora con nosotros!
    Envíanos tu versión de esta canción
  • Tutorial
    HD
    Como tocar Nada Personal (Soda Stereo)
    12:08
  • Tutorial
    HD
    Nada personal - SODA STEREO MVV (tutorial)
    6:12
  • Tutorial
    HD
    Como tocar NADA PERSONAL en guitarra - Soda Stereo
    TABS ✔️ ACORDES ✔️
    12:22

Letra de Nada Personal
Comunicación sin emoción.
Una voz en off, con expresión deforme.
Busco algo que me saque este mareo
busco calor en esa imagen de video.
Nada, nada personal.
Nada, nada personal.
Ella no puede pensar, está aburrida
de tanto simular, cayó dormida.
Busco en TV algun mensaje entre líneas
busco alguien que sacuda mi cabeza,
y no encuentro nada.
Nada...
nada especial.
Sinceramente, sería tan bueno tocarte
pero es inútil, tu cuerpo es de látex
y no siento nada.




[Nada Personal chords][Nada Personal cifra]
© LaCuerda.net · aviso legal · privacidad · es · en · pt · contacto