Tablatura para Bajo de Soda Stereo: Mi novia tiene biceps
Conexión · Inscripción
Letras y Acordes
Pantalla Completa
Imprimir
Versión Texto
Añadir Favorito
Otras Versiones

Mostrar Diagramas
Desfile Automático
Formato del Texto


Mi novia tiene biceps(BAJ)

Soda Stereo

calidad:
soda0702
AUTOR: Alberti, Hector Bosio, Gustavo Cerati
ALBUM: El Legado de Soda Stereo, Vol. 2 (1984)
Enviado por Mariano
Un bajo con un estilo medio "disco"...


"Ay como pesa esto..·"

0:04

g----------------------------------------
D---9-9-9-9--6-6-7-7--9-9-9-9--6-6-7-----
A----------------------------------------
E--7-7-7-7--4-4-5-5--7-7-7-7--4-4-5--7/--

0:09
Estrofa

"Gimnasia por las tardes, sesiones de karate
 Se pone impenetrable, sera muy saludable.."

0:19

"Pero no puedo discutir con ella, lo intento y me atropella..

g------------6-6-7-7---------6-6-7-7/-- /deslizar para lo agudo.
D--------------------------------------
A--2/------04-4-5-5--------04-4-5-5----
E----0-024-----------00-024------------

 Problemas como amigos, seguir asi es nocivo
 Bailando apretados, me siento asfixiado...Ah"

g--/17-/18-/19--/17-/18-/19--/17-/18-/19--/18/19-17/-- /escuchar los
D----------------------------------------------------- deslizamientos
A----------------------------------------------------- porq son bien
E----------------------------------------------------- pegados.



0:34

"Ese ritmo insoportable y mi estado lamentable...

g------------6-6-7-7---------6-6-7-7----
D---------------------------------------
A--2/------04-4-5-5--------04-4-5-5-----
E----0-024-----------00-024---------7/--


         Seguro que se cree super niña...  Aio...

g------------------------
D------------------------
A---------------5550444--
E--222222--4555----------


0:45
Estribillo

"Mi novia tiene biceps, ojo con lo que le dices...
 Mi novia tiene biceps, ojo con lo que le dices..."

g---------------------
D---9-9-9-9--6-6-7-7--
A---------------------  (X4)
E--7-7-7-7--4-4-5-5---

g---9-9-9-9-9-9-6-7--9-9-9-9-9-9-11--13------
D--------------------------------------------
A--7-7-7-7-7-7-4-5--7-7-7-7-7-7-9--10--12/---
E--------------------------------------------


1:01
Estrofa

"Mi novia es dinamita, que dulce criatura
 Extraño su belleza, yo soy un complemento de sus pesas..

g--19-18-17-14-15---18/19/18/19-17/18/17/18---
D---------------------------------------------
A---------------------------------------------
E---------------------------------------------

1:11

"Sigue igual de caprichosa, pero ahora es musculosa..

g------------6-6-7-7---------6-6-7-7----
D---------------------------------------
A--2/------04-4-5-5--------04-4-5-5-----
E----0-024-----------00-024---------7/--


         Seguro que se cree super niña...  Aio...

g------------------------
D------------------------
A---------------5550444--
E--222222--4555----------


1:21
Estribillo

"Mi novia tiene biceps, ojo con lo que le dices...
 Mi novia tiene biceps, ojo con lo que le dices..."

g---------------------
D---9-9-9-9--6-6-7-7--
A---------------------  (X4)
E--7-7-7-7--4-4-5-5---


1:32
"Hooo...

g------------------------------------------------
D------------------------------------------------
A--6_77-6_77-6_77-6_77-6_77-6_77-6_77-6_77-6_77--
E------------------------------------------------

g---------------------------------
D--/141414141414141414-12---------
A------------------------14-12/---
E---------------------------------

1:41

"Mi novia tiene biceps

g---9-9-2-2-4-6-7-8---
D---------------------   (X7) Esto lo hace rapido
A--7-7-0-0-2-4-5-6----
E---------------------

g---9-9/--------------------18-19--19-19/--
D----------19-------------19--------------- escuchar bien porq es un
A--7-7/------17_18_19_17------------------- quilombo esta parte...
E------------------------------------------

"Musculosa, musculosa..."

g---9-9-2-2-4-6-7-8---
D---------------------   (X2) Y se va apagando supuestamente
A--7-7-0-0-2-4-5-6----        tiene q terminar en MI A--7--
E---------------------

*** Mariano Bria *** Jesma *** Cba *** Marianorocken@hotmail.com ***
Este fichero es trabajo propio de su transcriptor y representa su interpretación personal de la canción. El material contenido en esta página es
para exclusivo uso privado, por lo que se prohibe su reproducción o retransmisión, así como su uso para fines comerciales.
© LaCuerda.net · Aviso Legal · Privacidad