Acordes de Guitarra » S »Soda Stereo » Corazón Delator (Tab)

Corazón Delator
Soda Stereo

Letras, Acordes y Tabs para Guitarra, Bajo y Ukulele

  •      Em   G9
            Un señuelo
           Em     G9
         hay algo oculto en cada sensación
         Am     C9
            ella parece sospechar
            A7     Cmaj7
         parece descubrir en mi
           Bm7
         debilidad
         Cmaj7       B7sus4-B7
            los vestigios de una hoguera
    
         F#m   F    Em
         oh mi corazón se vuelve delator
         F#m   F
            traicionándome
    
         Por descuido
         fui víctima de todo alguna vez
    
  • Intro: Dadd9 Esus4 x2 G6 A9 Em
    
           Em D Em Gadd2 Bm D
           Em D Em Gadd2 Bm G
    
           Am7 C D A7 x2 Cmaj7
    
    
    Em D Em     Gadd2  Bm D
           Un señuelo
        Em             D    Em    Gadd2  Bm G
    hay algo oculto en cada sensación
    Am7                  C            D     A7
       ella parece sospechar, parece descubrir
       Cmaj7     Bm7   Cmaj7                       B7sus4 B7
    En mi     debilidad    los vestigios de una hoguera
    
    F#m       F             Em      F#m        F
    oh mi corazón se vuelve delator     traicionándome...
    
    
  • e----------------------------------------|
    B---15--13--15-----13--15-17-19-20-19----|
    G----------------------------------------|
    D----------------------------------------|
    A----------------------------------------|
    E----------------------------------------|
    
    1-------------------------------------------15-13-11---|
    2------3---3-----3-------------3-----------------------|
    3----4--4-------4-4-----------4-4----------------------|
    4---4----4-----4---4-4-6-----4---4-4-------------------|
    5--2----------2-------------2--------------------------|
    6------------------------------------------------------|
    
    
    Em   G9
            Un señuelo
    1----------------------------|
    2-------------11/9//68-----|
    3----------------------------|
    
  • bueno, aqui le dejo corazon delator, creo que esta correcta pero si me la
    corrijen no hay problema, esta es la version Ultimo Concierto, que es
     igual a la Version del MVV , solo que la del
     MVV esta afinada en medio tono mas grave
    
    
    Intro 1
    
    1ºI-12-----------12-------------12-------------------------12-I
    2ºI------10b(12)------10b(12)-------10--12b(14)--14f12-----I
    3ºI-------------------------------------------------------------I
    4ºI-------------------------------------------------------------I
    5ºI-------------------------------------------------------------I
    6ºI-------------------------------------------------------------I
    
    intro 2
    
    1ºI-15----14--12-----5------7-I
    2ºI-12---------------8------8-I
    3ºI-12---------------7------7-Ix2
    4ºI----------------------------I
    5ºI----------------------------I
    6ºI----------------------------I
    
    intro 3
    
    1ºI---------------5-----------------------5-------------------5---I
    2ºI-----5----8------------------5----8--------------5----8-------I
    3
  • afinacion: Drop d
    
    intro:
    --------------------------------
    --------------------------------
    --------------------------------
    -0---2---0---2---5---7---2---2--
    
    0:26
    -------------------------
    -------------------------
    -------------------------  x2
    -2--0--2--5--9-----------
    
    --------------------------------
    --------------------------------
    -------------3--5----------3----
    -7--5--7--9--------7--5--7------
    
    0:48
    -------------------------
    -------------------------
    -------------------------  x2
    -2--0--2--5--9-----------
    
    -------------------------------
    -------------------------------
    ----------3--3--5--------------
    -7--5--7-----------7--5--7-----
    
    -------------------------------
    ----2-------------5------------
    -3-----2--2-3--3-----2--6------
    ---------------------------4--3
    
    -------------------------
    -------------------------
    -------------------------
    -2-0-2--4--3-------------
    
    Se repite de nuevo desde el segundo 0:48 y sigue:
    
    ---------7------------------------
    -----5-------------------------
  • +
    ¡Colabora con nosotros!
    Envíanos tu versión de esta canción
  • Tutorial
    HD
    Como tocar Corazón delator (Soda Stereo)
    - Segunda Guitarra
    25:11
  • Tutorial
    HD
    Como tocar Corazón delator (Soda Stereo)
    - Primera Guitarra
    42:24

Letra de Corazón Delator
Un señuelo
hay algo oculto en cada sensación
ella parece sospechar
parece descubrir en mi
debilidad
los vestigios de una hoguera
oh mi corazón se vuelve delator
traicionándome
Por descuido
fui víctima de todo alguna vez
ella lo puede percibir ya nada puede impedir en mi
fragilidad
es el curso de las cosas
oh mi corazón se vuelve delator
se abren mis esposas...
un suave látigo
una premonición
dibujan llagas en las manos
un dulce palpito
se van cayendo de mis labios
Un señuelo
hay algo oculto en cada sensación
ella parece sospechar
parece descubrir en mi
que aquel amor
es como un océano de fuego
oh mi corazón se vuelve delator
la fiebre volverá de nuevo
Un suave látigo ...
Un dulce palpito
se van cayendo de mis labios...
Como un mantra
de mis labios
de mis labios
Sinceramente este es el mejor grupo del mundo, sus letras todo LO AMO.
Comentarios HAUG74@latinmail.com ó horaciostereo@hotmail.com




[Corazón Delator chords][Corazón Delator cifra]
© LaCuerda.net · aviso legal · privacidad · es · en · pt · contacto