Acordes de Guitarra » S »Soda Stereo » Cae el sol (Tab)

Cae el sol
Soda Stereo

Letras, Acordes y Tabs para Guitarra, Bajo y Ukulele

  • Intro: A  D  Em  (x4)
    
    A7      Em
    Y cada vez que vuelvo
    A7          Em  
    tus ecos estan
    A7         Em
    y queria despertarme
    A7           Dm
    y al fin con vos
       Em       D
    volver a jugar
    
            Em   
    cae el sol
    C            D       Em
    y aun sigo soñando
    D       Em
    sale el sol
    C                   D   Em
    
  • Intro: D  Em7 C (x4)
    
    e||-----------------------------------||
    B||-----------------------------------||
    G||---------7-7-7-7---7h9-9-7-7-------||
    D||-7-7-7-9---------------------9-9---||
    A||-----------------------------------||
    E||-----------------------------------||
    
    
        D        Em7     C       D                Em7    C
        |         |      |       |                 |     |
    e||---2---2---3------0-----|--------------------------------||
    B||---3-----3---3------1---|-----0---3---0------------------||
    G||---2-----------0------0-|---2---2---2---2----------------|| x2
    D||-0----------------------|-0------------------------------||
    A||------------------------|-----------------0h2--0-----2h3-||
    E||------------------------|-------------------------3------||
    
    
    
  • e----------------10-10-10-10-10-10-10h12-12-10-10------------------------
    B-10-10-10h12-------------------------------------12-12------------------
    G------------------------------------------------------------------------
    D------------------------------------------------------------------------
    A------------------------------------------------------------------------
    E------------------------------------------------------------------------
    
    La parte en que entra la guitarra
    
    Figura 1
    
    e------------------------------------------------------------------------
    B------------------------------------------------------------------------
    G---------7-7-7-7-7-7h9-9-7-7--------------------------------------------
    D-7-7-7h9---------------------9-9----------------------------------------
    A------------------------------------------------------------------------
    E------------------------------------------------------------------------
    
     Figura 2
    
    
  • +
    ¡Colabora con nosotros!
    Envíanos tu versión de esta canción

Letra de Cae el sol
Y cada vez que vuelvo
tus ecos estan
y queria despertarme
y al fin con vos
volver a jugar
cae el sol
y aun sigo soñando
sale el sol
y no te puedo encontrar
Y cada vez que vuelvo a ti
siento que vos
me arrojaste a la inercia
sin novedad
sin excepcion
Cae el sol
y aun sigo soñando
sale el sol
y no te puedo encontrar
0 0 0
0 0 0
0 0 0
2 3 4
2 3 4
0 0 0
Y cada vez que vuelvo
un mismo final
afuera el mundo sigue
soy uno mas
buscando en el mar
Cae el sol......
Un extraño destino
una oscura verdad
tan solo tropiesos
amar o callar
andube caminando
por calles al asar
por calles vacias
buenos aires, buenos aires....humedad
despues de esto solo se repite el coro
con un disminuyendo el volumen.
y eso es todo, espero que les guste.
*Dedicada a... M.S.B




[Cae el sol chords][Cae el sol cifra]
© LaCuerda.net · aviso legal · privacidad · es · en · pt · contacto