Tablatura de Soda Stereo: Cae el sol
Gustavo Cerati, Daniel Malero
Nada Personal [1990]
Saludos! Esta es una de mis canciones favoritas de el Cancion
Animal y con gusto se aceptan correciones :)
Soda Enorme!!

IMPORTANTE: Si tienes guitarra electrica es muy recomendable
que uses efecto Chorus, no muy profundo claro, para que suene
mucho mejor

El intro con el teclado

e----------------10-10-10-10-10-10-10h12-12-10-10------------------------
B-10-10-10h12-------------------------------------12-12------------------
G------------------------------------------------------------------------
D------------------------------------------------------------------------
A------------------------------------------------------------------------
E------------------------------------------------------------------------

La parte en que entra la guitarra

Figura 1

e------------------------------------------------------------------------
B------------------------------------------------------------------------
G---------7-7-7-7-7-7h9-9-7-7--------------------------------------------
D-7-7-7h9---------------------9-9----------------------------------------
A------------------------------------------------------------------------
E------------------------------------------------------------------------

 Figura 2

e------2-0----------------2-2-5-0----------------------------------------
B--3-3-3-------0-3-2-0----3-3-3-3-------0-3-2-0--------------------------
G--2-2-2---2-2--2-2-------2-2-2-2---2-2--2-2-----------------------------
D--2-2-------------------------------------------------------------------
A------------------------------------------------------------------------
E------------------------------------------------------------------------

A A Asus4 Y cada vez que vuelvo
C tus ecos estan
A A Dsus4 y querria despertarme
F G A y al fin con vos volver a jugar. (Figura2) Cae el sol y aun sigo soñando sale el sol y no te puedo encontrar.
A A Asus4 Y cada vez que vuelvo aquí
C siento que vos
A A Dsus4 me arrojaste a la inercia
F G A sin novedad, sin decepcion. (Figura2) Cae el sol y aun sigo soñando sale el sol y no te puedo encontrar (Puente)
A Tutitutitutitu
D Tututututututu
A A Asus4 Y cada vez que vuelvo
C un mismo final
A A Dsus4 afuera el mundo sigue
F G A soy uno mas buscando en el mar Cae el sol...
A Asus4 Un extrano destino, una oscura verdad
A Asus4 tan solo tropiezos, amar o callar
A Asus4 anduve caminando por calles al azar
A por calles vacias
D Dsus4 D Buenos Aires, Buenos Aires, humedad (Figura2) Este es el outro que usaron en la gira Me Veras Volver 2007 aparece en el disco con ligeras variaciones, este es el famoso guiño a Here Comes the Sun de los Beatles :) e--2-2-0-2---2-0------2-0-----------0-------------------------------- B--3-------3-----3--------3-3-2-3-3---------------------------------- G--2---------------2------------------------------------------------- X2 D-------------------------------------------------------------------- A-------------------------------------------------------------------- E-------------------------------------------------------------------- Suerte!!
Este fichero es trabajo propio de su transcriptor y representa su interpretación personal de la canción. El material contenido en esta página es
para exclusivo uso privado, por lo que se prohibe su reproducción o retransmisión, así como su uso para fines comerciales.
© LaCuerda.net · aviso legal · privacidad · contacto