Acordes de Guitarra » S »Soda Stereo » Angel Eléctrico (Tab)

Angel Eléctrico
Soda Stereo

Letras, Acordes y Tabs para Guitarra, Bajo y Ukulele

  • Dm          Em 
     Ahí va la tempestad
    F                 G
     ya parece un paisaje habitual
    Dm               Em
     un árbol color sodio
                    G
     la caída de un ángel eléctrico
    
    
    Verso 2:
    Dm          Em 
     No tengo estática
    F                   G
     y no querría lastimarte de nuevo
    Dm                Em
     volví solo y cansado
    F                     G
     por la caída de otro ángel eléctrico
    
    
  • [D - D9 - Dsus4 - D - D9]x4
    
    
    Dm          Em
     Ahí va la tempestad;
    F                 Eb
     ya parece un paisaje habitual.
    Dm               Em
     Un árbol color sodio;
    F               Eb            Dm - Em - F - Eb
     la caída de un Ángel Eléctrico.
    
    
    Dm           Em
     No tengo estática
    F                   Eb
     y no querría lastimarte de nuevo.
    Dm                Em
     Volví solo y cargado
    F                     Eb           [Dm]x2 [F]x4
    
  • F           G
     Ahí va la tempestad
    F                 Eb
     ya parece un paisaje habitual
    F                G
     un árbol color sodio
    F               Eb      D
     la caída de un ángel eléctrico
    
    F            G
     Aún tengo estática
    F                   Eb
     y no querría lastimarte de nuevo
    F                 G
     Volví solo y cansado
    F                     Eb      D
     por la caída de otro ángel eléctrico
    
    F            G
     Enredado en cables                            EADGBe
    
  • e-----3--------5--------4--------8p7----
    B---2---2----6---6----5---5----8-----8--
    G-3--------5--------4--------7----------
    D---------------------------------------
    A---------------------------------------
    E---------------------------------------X3
    
    e-----3--------5--------4--------3-----
    B---2---2----6---6----5---5----4---4---
    G-3--------5--------4--------3---------
    D--------------------------------------
    A--------------------------------------
    E--------------------------------------
    
    e------------------------
    B------------------------
    G----/7v--/--------------
    D------------------------
    A------------------------
    E------------------------
    
  • Angel Eléctrico (SODA STEREO) versión Unplugged (INTRO Y SOLO DE GUITARRA que 
    hace Gustavo Cerati):
    
    (al final está la explicación de la tablatura)
    
    
    Gustavo lo toca con distorsión y mucho vibrato.
    
    Intro:
    
    G ---//7vvvvvvvvvvvv----/\-----------------------------------------------------------
    
    E -----------------------------------------------------------------------------------
    B --------8vv-8\--------8vv--------8v-6-8b9r8v-6-8b9r8-6-8vv-6-8b9r8-6-8-------------
    G --5h7-5---------5h7-5------5h7-5---------------------------------------------------
    D -----------------------------------------------------------------------------------
    A -----------------------------------------------------------------------------------
    E -----------------------------------------------------------------------------------
    
    
    E ---------------------------------------------------8------8------8----------------------
    B --------8vv-8---------8vv--------8v-6-8b9r8-6-8b10---8b10---8b10---1
  • e-----3--------5--------2--------8-7----
    B---4---4----6---6----3---3----8-----8--
    G-3--------5--------2--------7----------
    D--------------------------------------- *3
    A---------------------------------------
    E---------------------------------------
    
    e-----3--------5--------3--------2-----
    B---4---4----6---6----4---4----3---3---
    G-3--------5--------3--------2---------
    D--------------------------------------
    A--------------------------------------
    E--------------------------------------
    
    e------------------------
    B------------------------
    G----/7v-/--------------
    D------------------------
    A------------------------
    E------------------------
    
  • e|-------2---------5---------4---------8-7---|
    B|-2/3-3---3-3/6-6---6-6/5-5---5-5/8-8-----8-| x3
    
    e|-------2---------5---4444-3333-|
    B|-2/3-3---3-3/6-6---6-5555-4444-|   D
    
    G|-5/7v-|
    
    e|----------------------------------------------------------|
    B|-------8v-8/-------8v-------8v-6-8b-6-8-6-8b-6-8-6-8b-6-8-|
    G|-5h7-5-------5h7-5----5h7-5-------------------------------|
    
    e|-------------------------------------------------8-------8------|
    B|-------8b-------8b-8/-------8v-6-8h9-8-6-8-6-8h9---6-8h9---8----|
    G|-5h7-5----5h7-5-------5h7-5----------------------------------7v-|
    
    Dm          Em
      Ahí va la tempestad
    F                 Em
     Ya parece un paisaje habitual
    
  •   Intro Guitarra    intro...
    G----------------|-------------------------------
    D----------------|----3---5---3---5---3----------   X 4
    A----------------|--5---5---5---5---5------------	  		
    E----------------|-------------------------------
    
    Cont. intro y verso
    
    G------------------------------------------------
    D-----3---5---3---5---3-----5---7---5---7---5----
    A---5---5---5---5---5----7----7---7---7---7------
    E------------------------------------------------
    										    
    G------------------------------------------------
    D------------------------------------------------
    A--7-9-7---7-9-7---7h9-9--6-8-6---6-8-6---6h8-8--
    E--------7-------9--------------6-------8--------
    
    'de esperar que algo quiebre el unisono...'
    
    G----------------------------
    D----------------------------		X 4
    A--5-5-7---7\10~~~/----------		
    E--------5-------------------
    
    G-------------------------------------
    D-------------------------------------		X 4
    A-------------------------------------
    
  • +
    ¡Colabora con nosotros!
    Envíanos tu versión de esta canción
  • Tutorial
    Letra Acordes BIEN DETALLADOS Angel eléctrico Soda Stereo Cómo tocar Cover
    3:25

Letra de Angel Eléctrico
Ahí va la tempestad
ya parece un paisaje habitual
un árbol color sodio
la caída de un ángel eléctrico
Verso 2:
No tengo estática
y no querría lastimarte de nuevo
volví solo y cansado
por la caída de otro ángel eléctrico
Verso 3:
Enredado en cables
estoy al filo de la resignación
debe ser el hábito
de esperar que algo quiebre el unísono
Verso4:
Un nuevo acorde
te hace mirarme a los ojos
aun tengo al sol
para besar tu sombra
Verso 5:
Hoy caí
al dejarte sola
ya pagué
por quebrar la calma
Hay que notar la rareza de esta pieza de Cerati,
en donde es difícil encontrar algo que se pueda
delimitar totalmente como estribillo, a excepción
de la frase '... la caída de un ángel eléctrico...'




[Angel Eléctrico chords][Angel Eléctrico cifra]
© LaCuerda.net · aviso legal · privacidad · es · en · pt · contacto