Acordes de Guitarra » S »Sin Bandera » Kilómetros (Tab)

Kilómetros
Sin Bandera

Letras, Acordes y Tabs para Guitarra, Bajo y Ukulele

  • e|-9-9-9-9-7-7-7-6-5-5-7-9-------9---5-5-5-12-|
    b|------------------5-----7-7/57--------------|
    g|--------------------------------------------|
    D|--------------------------------------------|
    A|--------------------------------------------|
    E|--------------------------------------------|
    
    
    e|--5-----------0----0--|
    b|--5---5h7-5---0h2--2--|
    g|--6--------6--0h2--2--|
    D|-------------------2--|
    A|-------------------0--|
    E|-------------------0--|
    
    
    LA
    A varios cientos de kilómetros
    RE
    Puede tu voz darme calor igual que un sol
    
  •   A5 D5     F#m        Bm7   E
    ...........MMMMM.....JEEEEEE
    A5            A
    A varios cientos de kilómetros,
    D5                    D
    Puede tu voz darme calor igual que un sol
    F#m
    Y siento como un cambio armónico
    Bm7                    E
    O al componer una canción en mi interior.
    
    A5         A
    Seque seguir no suena lógico
    D5                    D
    Pero no olvido tu perfume mágico
    F#m
    Y en éste encuentro telefónico,
    Bm7                  E
    E recordado que estóy loco por ti.
    
    
  • Intro: Asus2 A D F#m E Amaj7 D
    
    Asus2              A
    A Varios cientos de kilometros
    
    D
    Puede tu voz darme calor igual que un sol
    
    F#m
    Y siento como un cambio armónico
    
    Bm                    Esus
    Va componiendo una canción en mi interior
    
    
    Asus2               A
    Sé que seguir no suena lógico
    
    D
    Pero no olvido tu perfume mágico
    
  • A - D
    A - Bm E
    
    A
    A varios cientos de kilómetros,
    D
    Puede tu voz darme calor igual que un Sol
    F#m
    Y siento como un cambio armónico
    D                     E
    Va componiendo una canción en mi interior.
    
    
    A
    Se que seguir no suena lógico
    D
    Pero no olvido tu perfume mágico
    F#m
    Y en éste encuentro telefónico,
    D                    E
    
  • B  Sube LA cuerda(Bend) hasta el tono del traste indicado despues de la 'b'
    r  suelta la cuerda de la posicion bend hacia el tono del traste indicado despues de la 'r'
    
    
    
    
    
    
    A
      A varios cientos de kilometros
    D
      Puede tu voz darme calor igual que un sol
    F#m
      Y siento como un cambio armonico
    Bm7                     E
      Va componiendo una cancion en mi interior
    
    
    A
      Se que seguir no suena logico
    
  • INTRO: LA - RE - LA/DO#m - SIm - MI
    e|---9-9-9-9-7-7-7-7---5---5-7-7/9--------------9-|
    B|-----------------------5----------7-7-5~7-5/7---|
    G|---9-9-9-9-7-7-7-7---6-6-6-7-7/9--7-7-6~7-----9-|
    D|----------------------------------0-------------|
    A|-0-----------------0--------------0-------------|
    E|------------------------------------------------|
    
    e|----[5]--------------------------|
    B|7--------5~7-5---5~7-5-------7---|
    G|9--------------7-7-----7-6-7-7---|
    D|9-[7]------------0-----------7---|
    A|7----------------0-----------7---|
    E|-----------------7-----------7---|
    
    [] significa armónico
    ~ se toca la cuerda en el primer numero y el otro solo se golpea
    
    NOTAS
       LA  LA/DO#m  RE  MI  SIm  SOL DO#m
    
  • EL BAJO ENTRA EN LA PRIMERA ESTROFA
    
    A varios…
    G - - - - - - - - - - - - - - - - - - - - - - - - - - - -
    A - - - - - - - - - - - - - - - - - - - - - - - - - - - -
    D - - - - -5 - 5- - - - - 2- - - - - - 5- 5- - - - 2- - -
    E - 5- 5- - - - - -5 - 5- - - 0- 5- 5- - - - 5- 5- - 0- -
    
    Que todo…
    G - - - - - - - - - - - - - - - - - -
    A - - - - - - - - - - - - - - - - - -
    D - - 5- 5- - 2- - 5- 4- 2- - - - - -
    E - 5- - - 5- - 0- - - - - 0- 0- 5- -
    
    A varios cientos de km tiene…
    G - - - - - - - - - - - - - -
    A - - - - - - - - - - - - - -
    D - - - - 5- 5- - - - 2- - --
    E - 5- 5- - - - 5- 5- - 0- --
    
    Que todo…
    G - - - - - - - - - - - - - - - - -
    A - - - - - - - - - - - - - - - - -
    D - - 5- 5- - 2- - 5- 4- 2- - - - -
    E - 5- - - 5- - 0- - - - - 0- 0- 5-
    
    
    Que todo…
    G - - - - - - - - - - - - - - - - - -
    A - - - - - - - - - - - - - - - - - -
    D - - 5- 5- - 2- - 5- 4- 2- - - - - -
    E - 5- - - 5- - 0- - - - - 0- 0- 5- -
    
    
    Esta rola se las dedico a mi amiga
    “Leydy Torales Flores"
    en nuestra amistad la 
  •   ________________________________________________________
      |    |   |   | |   | |   |   |   |   | |   |   |  |   |
      |    |   |Fa#| |Sol| |La#|   |   |Do#| |Re#|   |  |   |
    Suben  |   |   | | # | |   |   |   |   | |   |   |  |   |  bajan
    1 8va<-|   |___| |___| |___|   |   |___| |___|   |  |___|->1 8va
           |     |     |     |     |     |     |     |    |
           | Fa  | Sol |  La |  Si |  Do | Re  | Mi  |    |
        ___|_____|_____|_____|_____|_____|_____|_____|____|__
            Esta es la octava q mas vamos a utilizar/
                   A lo largo d la canción
    Cuando digo (vuelven) me refiero a volver esa octava ^0^
    
    
    **INTRO**
    
    A
    Do#  Do#  Do#  Do#   Si  Si  Si  La  Re  La  Si  Do#  Fa#
    
    D
    Fa#_Do#  Mi  Fa#_Do# (bajan 1 8va) Mi  Fa#  Fa#_Do# (vuelven)
    
    F#m
    La   Mi  (bajan 1 8va) La Mi (vuelven)
    
    Bm
    La (Suben 1 8va) Mi  Do#  Mi  Re  Do# re  Mi
    
    E
    Si (vuelven)
    
    
    Empieza la letra
    
    *Verso1*
    A
    A varios cientos de kilómetros
    Do# Do# Do# Do# Si Si Si Si La La
    
    E
    Puede tu voz darme calor 
  • +
    ¡Colabora con nosotros!
    Envíanos tu versión de esta canción

Letra de Kilómetros
...........MMMMM.....JEEEEEE
A varios cientos de kilómetros,
Puede tu voz darme calor igual que un sol
Y siento como un cambio armónico
O al componer una canción en mi interior.
Seque seguir no suena lógico
Pero no olvido tu perfume mágico
Y en éste encuentro telefónico,
E recordado que estóy loco por ti.
Que todo el mundo cabe en el teléfono
Que no hay distancias grandes para nuestro amor,
Que todo es perfecto cuando te siento
Tan cerca aunque estes tan lejos...MMMM...UOH..
A varios cientos de kilómetros
Tiene un secreto que decirte mi dolor
En cuanto cuelgues el teléfono
se quedará pensando mi corazón.
Que todo el mundo cabe en el teléfono
Que no hay distancias grandes para nuestro amor,
Que todo es perfecto cuando te siento
Tan cerca aunque estes tan...... lejos. ...AAAAA
Que todo el mundo cabe en el teléfono
Que no hay distancias grandes para nuestro amor,
Que todo es perfecto cuando te siento
Tan cerca aunque estes..UUH..tan lejos.UUUH...MMMMM...
Tan lejos
COMENTARIOS Y SUGERENCIAS
MANDENME UN CORREO ....CHAO




[Kilómetros chords][Kilómetros cifra]
© LaCuerda.net · aviso legal · privacidad · es · en · pt · contacto