Acordes de Guitarra » S »Sin Bandera » Entra en mi vida (Tab)

Entra en mi vida
Sin Bandera

  • Letra y Acordes
    Intro C Fmaj7 C Fmaj7
    
    C                            Fmaj7
    Buenas noches, mucho gusto, eras una chica mas
    C                            Fmaj7
    Después de cinco minutos ya eras alguien especial
    Dm7                            Em7
    Sin hablarme, sin tocarme, algo dentro se encendió
    Dm7                            G
    En tus ojos se hacia tarde y me olvidaba del reloj.
    
    C                              Fmaj7
    Estos días a tu lado me enseñaron que en verdad
    C                             Fmaj7
    No hay tiempo de terminar para comenzar a amar
    Dm7                            Em7
    Siento algo tan profundo que no tiene explicación
    Dm7                            G
    No hay razón ni lógica en mi corazón.
    
    
  • Letra y Acordes
    intro DO-FA-DO-REm-MIm-FA
    
    DO                             FA
    Buenas noches, mucho gusto, eras una chica mas
    DO                             FA
    despues de cinco minutos ya eras alguen especial
    REm                            MIm
    Sin hablarme, sin tocarme, algo dentro se encendio
    REm                            SOL
    en tus ojos se hacia tarde y me olvidaba del reloj.
    
    DO                             FA
    Estos dias a tu lado me enseñaron que en verdad
    DO                             FA
    no hay tiempo de terminar para comenzar a amar
    REm                            MIm
    Siento algo tan profundo que no tiene explicacion
    REm                            SOL
    no hay razon ni logica en mi corazon.
    
    
  • Letra y Acordes
    LA quiero mas.
    Te quiero mucho Mitzi.
     
    
    DO      
    Buenas noches, mucho gusto
       FA 
    era solo una chica mas
    DO                     
    despues de cinco minutos ya 
    FA 
    eras alguien especial
    REm     
    sin hablarme, sin tocarme 
          SOL 
    algo dentro se encendio
    REm
    en tus ojos se hacia tarde
          SOL 
    y me olvidaba del reloj
    
  • Tablatura
    e|------------8-7-----1------1-13-12----------|
    B|-------3-5------8---------1--------13-10----|
    G|-----5------9-7---7-3----2---14-12----10----|
    D|---5------------9------3-----------14-------|
    A|-3----------------8-------------------------|
    E|--------------------------------------------|
    
    e|------------8-7-----10-12-13-------10-12---10-8-----10----|
    B|-------3-5------8------------10----------9------8---10----|
    G|-----5------9-7---7-------------10----9-----------8-10----|
    D|---5------------9---------10------------------8-----9-----|
    A|-3----------------8---------------------------------------|
    E|----------------------------------------------------------|
    
    
    Intro C -F -C -Dm -Em -F
    
    C                              F
    Buenas noches, mucho gusto, eras una chica mas
    C                              F
    
  • Tablatura
      A-3----------------------7----------------------3---------------------|
      D---5---------------------5------------------------5------------------|
      G-----5------9-7-4---------5-------14-12-9------------5------9-7-4----|
      B-------3-5---------3-5-----5----------------10----------3-5-------3-5|
      e------------8-7-3-----------------13-12-8-------------------8-7-3----|
    
    
      E--------------------------
      A-5-----7------8-----------|
      D---7-----9-----10---------|
      G-----5-----7-----10-------|
      B------6-----8------8------|
      e---------------------8----|
    
    DO                                 FA
      Buenas noches, mucho gusto, eras una chica mas
    DO                                 FA
      después de cinco minutos ya eras alguien especial
    REm                                MIm
      Sin hablarme, sin tocarme, algo dentro se encendió
    
  • Tab p/Bajo
    INTRO
    
    G|--------|--------|--------|--------|--------|--------|
    D|--------|--------|--------|-0--0-0-|--------|--------|
    A|-3--3-3-|--------|-3--3-3-|--------|--------|--------|
    E|--------|-1--1-1-|--------|--------|-0--0-0-|-1--1-1-|
    
    
    VERSO
    
    G|--------|--------|--------|--------|--------|--------|
    D|--------|--------|--------|--------|-0--0-0-|--------|
    A|-3--3-3-|--------|-3--3-3-|--------|--------|--------|
    E|--------|-1--1-1-|--------|-1--1-1-|--------|-0--0-0-|
    
    VERSO
    
    
    CORO
    
    G|--------|--------|--------|--------|--------|--------|
    D|--------|--------|--------|--------|--------|--------|
    A|-3--3-3-|-0--0-0-|--------|--------|-3--3-3-|-0--0-0-|
    E|--------|--------|-1--1-1-|-3--3-3-|--------|--------|
    
    G|---|---|---|---|--------|
    D|-0-|---|---|---|--------|
    A|---|---|---|---|-3--3-3-|
    E|---|-0-|-1-|-3-|--------|
    
    
    VERSO
    
    CORO
    
    G|--------|--------|---|---|---|---|---|
    D|--------|--------|---|---|---|---|---|
    A|-3--3-3-|--------|-0-|-2-|---|---|-0-|
    E|--------|-1--1-1-|---|---|-1-|-3
  • Piano (Teclados)
    CHORDS
    
    MANO IZQUIERDA               MANO DERECHA
    C....(C2-E2-G2)              C....(C3-E3-G3) 
    F....(C2-F2-A2)              F....(C3-F3-A3)
    Dm...(D2-F2-A2)              Dm...(D3-F3-A3)
    Em...(E2-G2-B2)              Em...(E3-G3-B3)
    G....(G2-B2-D3)              G....(G3-B3-D3)
    Am...(A1-C2-E2)              Am...(A2-C3-E3)
    Fm...(F2-G2#-C3)             Fm...(F3-G3#-C4)
    
    A....(A1-C2#-E2)
    A*...(A2-C3#-E3)
    B....(B1-D2#-F2#)
    D....(D2-F2#-A2)
    Bm...(B1-D2-F2#)
    
    
    INTRO... (mano izquierda arriba, mano derecha abajo)
    (las notas solas son acordes............las notas con numero son notas)
    
    C2 G2 C3 E3     C           F   A2        F        F
    ------------------------------------------------------
             E2 G3  C4 B3 G3 D3 E3     C3 E3  F4 E4 C4 A3
    
    
    
    C2 G2 C3 E3     C                F            C            Fm  G
    -----------------------------------------------------------------
             E2 G3  C4 B3 G3   D4 E4 F4  C3 F3 A3    C3 E3 G3
    
    
    
    C
    buenas noches 
             
  • Piano (Teclados)
    hola a todos , no se me ocurrio otro modo de transcibir esto asi que aqui les va mi intento,
    en esta cancion se usan cuatro octavas, las cual numero despues de cada nota, las notas entre
    parentesis deben ser tocadas juntas
    
    
    
    M.derecha   Do2 Sol2 Do3 (Sol2 Re3)(Sol2 Mi3)(Mi3 Do4)(Re3 Si3)(Si2 Sol3)  Re3 Mi3       La2 Do3 Mi3
    
    M.izquierda Do1                                                                Fa1  Do2
    
    
    M.derecha   (La3 Fa4) (Sol3 Mi4)(Mi3 Do4)   Do2 Sol2 Do3 (Sol2 Re3)(Sol2 Mi3)(Mi3 Do4)(Re3 Si3)(Si2 Sol3) 
    
    M.izquierda                                 Do1                                      
    
    
    M.derecha   Re4 Mi4 (la3 Fa4)             (Sol3 Mi4)               (Mi3 Do4) (Fa3 Re4)
    
    M.izquierda                   Fa2 La2 Do3            Mi2 Sol2 Si2
    
    
    Bueno espero que le puedan entender, cualquier duda o comentario favor escribirme, 
    Un saludo A TODA NICARAGUA!!!!!!!!!
  • +
    ¡Colabora con nosotros!
    Envíanos tu versión de esta canción
  • Tutorial
    HD
    como tocar ENTRA EN MI VIDA acordes Guitarra sin Bandera
    6:12
  • Tutorial
    HD
    Como tocar Entra en mi vida Sin Bandera en Guitarra (HD)
    Tutorial
    5:24
  • Tutorial
    Como tocar - Entra en mi vida de Sin Bandera - Tutorial Guitarra (HD)
    8:38

Letra de Entra en mi vida
Te quiero mucho Mitzi.

Buenas noches, mucho gusto
era solo una chica mas
despues de cinco minutos ya
eras alguien especial
sin hablarme, sin tocarme
algo dentro se encendio
en tus ojos se hacia tarde
y me olvidaba del reloj
Estos dias a tu lado
me enseñaron que en verdad
no hay tiempo de terminar
para comenzar a amar
siento algo tan profundo
que no tiene explicacion
no hay razon ni logica
en mi corazon.
Entra en mi vida
te abro la puerta
se que en tus brazos
ya no habra noches desiertas
entra en mi vida
yo te lo ruego
te comenze por extrañar
pero empeze a necesitarte luego
Buenas noches, mucho gusto
ya no existe nadie mas
despues de este tiempo juntos
no puedo volver atras
tu me hablaste, me tocaste
y te volviste mi ilusion
quiero que seas dueña de mi corazon.
Entra en mi vida
te abro la puerta
se que en tus brazos
ya no habra noches desiertas
entra en mi vida
yo te lo ruego
te comenze por extrañar
pero empeze a necesitarte luego
entra en mis horas
salvame ahora
abre tus brazos fuerte y dejame entraaaar
Entra en mi vida
te abro la puerta
se que en tus brazos
ya no habra noches desiertas
entra en mi vida
yo te lo ruego
te comenze por extrañar
pero empeze a necesitarte luego
GooD LucK !



© LaCuerda.net · aviso legal · privacidad · contacto