Acordes de Guitarra » S »Seru Giran » Peperina (Tab)

Peperina
Seru Giran

Letras, Acordes y Tabs para Guitarra, Bajo y Ukulele

  • G6                              G(#5)
    Quiero contarles una buena historia
    G                             A7/G
    la de una chica que vivió la euforia
                 F
    de ser parte del rock'
    C/E                   Cm/Eb  G/D      C#º C
    tomando te de pepe    -    rina.
    G                                   C/G
    Típicamente mente pueblerina
    G                                    Em7/9
    no tenia huevos para la oficina
    F
    subterráneo lugar
    C/E              Cm/Eb   G/D
    de rutinaria ideolo-    gia.
    
    C#7sus4   F#         Bm/G
         Ro- mantica entonaba
           F#aug         Dm/F
    
  •          E A D B G E
    C        x-3-5-5-5-3
    C5/D#    x-6-5-5-x-x
    Cmaj7    x-3-5-4-5-3
    
    Dmaj7    x-5-7-6-7-x
    
    Em       0-2-2-0-0-0
    Em*      x-7-9-9-8-x
    Eb7/#9   x-6-5-6-7-x
    
    F        1-3-3-2-1-1
    F        x-9-11-11-11-x
    F#7/C#   x-4-2-3-x-x
    F#addD   2-5-4-3-2-2
    
    G        3-5-5-4-3-3
    G*       x-10-12-12-12-x
    Gaug     3--6--5-4-3-3
    Gdim     3--4--5-4-x-x
    
  • El bajo comienza al final del verso:
    "ella adora mostrar la paja de la cara ajena..."
    G|------------------------|----------|
    D|------------------------|----------|
    A|-----------------------2|--4-------|
    E|------------------------|-----4----|
    
    luego sigue con la estrofa:
    "Y dentro de su cuento ella era cenicienta..."
    --------------------------|-------|--------------------------|
    --------------------------|-------|--------------------------|
    --------------------------|-------|--------------------------|
    --5------------------5----|--4----|--3------------------3----|
    
    
    --------------------------
    -----3s-7--7--------------
    --------------------------
    --5--------------5--------
    
    "su príncipe era un hippie de los años sesenta..."
    |----------------------------|----------|
    |----------------------------|----------|
    |--3-----------3--------3----|--4-------|
    |-----------5----------------|-----4----|
    
                            "te amo, te odio, dame mas..."
    -----------------------|------------------
  • +
    ¡Colabora con nosotros!
    Envíanos tu versión de esta canción
  • Tutorial
    Letra y acordes Peperina Serú Girán bien explicado Tutorial Cover Charly García
    4:05

Letra de Peperina
Quiero contarles una buena historia
la de una chica que vivió la euforia
de ser parte del rock'
tomando te de pepe - rina.
Típicamente mente pueblerina
no tenia huevos para la oficina
subterráneo lugar
de rutinaria ideolo- gia.
Ro- mantica entonaba
sus poemas mas brillantes
susurrando al oído
Te amm o, te o- dio, da-me mas.
Mirando el campo se olvido del hombre
mirando al rico se vistió de pobre
para no poder saber
lo que chusmeaban las vecinas.
En su cabeza lleva una bandera
ella no quiere ser como cualquiera
ella adora mostrar
la paja de la cara ajena.
Y dentro de su cuento
ella era Cenicienta
su príncipe era un hippie
de los anos sesenta.
Te amo, te odio, dame mas.
Trabaja en los recitales
vive escribiendo postales
duerme con los visitantes
y juega con los locales
su cuerpo tiene pegada
grasa de las capitales.




[Peperina chords][Peperina cifra]
© LaCuerda.net · aviso legal · privacidad · es · en · pt · contacto
DINAMICO