Acordes de Guitarra » S »Seru Giran » Seminare (Tab)

Seminare
Seru Giran

Letras, Acordes y Tabs para Guitarra, Bajo y Ukulele

  • G           D/F#          Em
    Quiero ver, quiero entrar
          B7                C
    nena nadie te va a hacer mal
                   Dsus4   D
    excepto amarte.
    
    Vas aqui, vas allá
    pero nunca te encontraras
    al escaparte.
    
    Am                 G      C
        No hay fuerza alrede- dor
           D/C                 Em
    no hay pociones para el amor
              Em/D
    donde estas?
             Em/C#
    donde voy?
    Cm                 G
    
  • G           D/F#          Em
     Quiero ver,     quiero entrar
          B7                  C
    nena nadie te va a hacer mal
         Dsus4   D
    excepto amarte.
    
    G          D/F#    Em
      Vas aqui,   vas allá
         B7               C
    pero nunca te encontraras
     Dsus4   D
    al escaparte.
    
    Am                  G    C
      No hay fuerza alrede- dor
              D/C            Em
    no hay pociones para el amor
            Em/D
    donde estas?
    
  • Quiero ver...
    1I-------/-------/-----------------/------------/   X2
    2I-0-3-3-/-0-----/-0-3-4-4-4-0-----/-------0----/
    3I-------/---2-0-/-------------2-0-/---0-----2--/
    4I-------/--------/----------------/-2---2------/
    5I-------/--------/----------------/------------/
    6I-------/--------/----------------/------------/
    
     esas motos...
    1I-----------------/-----------0-2-3-/-5-2-3---5-2-3-/
    2I-------------0-1-/-1-1-3-3-3-------/---------------/
    3I-2-0-2-2-0-2-----/-----------------/---------------/
    4I-----------------/-----------------/---------------/
    5I-----------------/-----------------/---------------/
    6I-----------------/-----------------/---------------/
    
      porque estamos...
    1I-3-3-3---------------0-2-3-/-3-/-0-0-------/-----------/
    2I-------3-3-1-1-0-----------/---/-----3-3-3-/-0-0-------/
    3I-----------------2-0-------/---/-----------/-----0-0-0-/
    4I---------------------------/---/-----------/-----------/
    5I---------------------------/---/-----------/-----------
  • e||-------------------------------------------||
    b||-10b-8-8h10(11)----------------------------||
    g||-----------------------9h7----------7-9h7~~||
    d||---------------------------8s9--8s9--------||
    a||-------------------------------------------||
    e||-------------------------------------------||
    
    
    e||--15------------12b-12h10-------------------||
    b||-----12---------------------12h10h12--------||
    g||--------14v---------------------------------||
    d||--------------------------------------------||
    a||--------------------------------------------||
    e||--------------------------------------------||
    
    
    e||--12-15-----------18b---18b--17s18------15-||
    b||-------------------------------------------||
    g||-------------------------------------------||
    d||-------------------------------------------||
    
  •   G    D     Em     B         C         D X2
    E ------------------------------------------|-----|-Quiero ver, quiero entrar
    B -0-3-3-0------0-3-4-4-4-0-----------------|-----|-nena nadie te va a hacer
    G ---------2-0--------------2-0----0---4-2--|-0-2-|-mal, excepto amarte.
    D -------------------------------2---2------|-----|-Vas aqui, vas alla
    A ------------------------------------------|-----|-pero nunca te encontraras
    E ------------------------------------------|-----|-al escaparte.
    
      Am             C        D       Em
    E ---------------------------------------------------|-No hay fuerza
    B -------------0-1--1-1-3-3-3-5-7-8--10--7-8--10-7-8-|-alrededor, no hay
    G -2-0-2-2-0-2---------------------------------------|-pociones para el amor
    D ---------------------------------------------------|-¿donde estas?
    A ---------------------------------------------------|-¿donde voy?
    E ---------------------------------------------------|-
    
       G                   C B Em A         C D        G
    E --------------------------------------------------|-porque estamos en la
    B -8-8-8-3-3-1-1-0-----5-7-8--8-5-5-3-3-3-0-0-------|-calle de la sensación
    G -----------------2-0------------------------0-0-0-|-no muy lejos del sol
    
  • E------------------/5-2--------------------------------
    B--3-2-0-2-0---0-2-------5-3-5-3---3-5-----------------
    G-----------2-------------------5---------------------
    D------------------------------------------------------
    A------------------------------------------------------
    E------------------------------------------------------
    
    E----/8-7-2-------7-2----------------------------------
    B------------3--------3--------------------------------
    G--------------0--------0------------------------------
    D------------------------------------------------------
    A------------------------------------------------------
    E------------------------------------------------------
    
    E---------------------------/5-2-----------------------
    B------0-5-3-2-0-2-0---0-2--------5-3-5-3---3-5--------
    G--0h2---------------2--------------------5------------
    D------------------------------------------------------
    A------------------------------------------------------
    E------------------------------------------------------
    
  • 8 9 9 8 (8) 7
    
    8 9 9 9 9 8 (8) 7
    
    (6) 7 (6) 8 (8)
    
    REPITE PRIMER ESTROFA
    
    
    (4) 4 (4) (4) 4 (4) 5 (5)
    
    (5) (5) 6 6 6 (6) (7) 7
    
    (8) (7) 7 (8) (7) 7
    
    7 7 7 6 6 (5) (5) 5
    
    (4) 4 (6) (7) 7 7
    
    (6) (6) 6 6 6
    
    5 5 4 4 4
    
    
    REPITE PRIMER ESTROFA DOS VECES
    
    REPITE SEGUNDA ESTROFA, CON LETRA CAMBIADA
    
    REPITE SEGUNDA ESTROFA NORMAL
    
    REPITE SEGUNDA ESTROFA CON LETRA CAMBIADA
    
    
    
    cualquier cosa pregunten a:
    antyracing91@hotmail.com (tengo MSN)
  • +
    ¡Colabora con nosotros!
    Envíanos tu versión de esta canción
  • Tutorial
    Seminare - Seru Giran - Guitarra como tocar
    4:01

Letra de Seminare
Quiero ver, quiero entrar
nena nadie te va a hacer mal
excepto amarte.
Vas aqui, vas allá
pero nunca te encontraras
al escaparte.
No hay fuerza alrede- dor
no hay pociones para el amor
donde estas?
donde voy?
Porque estamos en la calle
de la sen- sa- ción
muy lejos del sol
que quema de amor.
Te doy pan
quieres sal
nena nunca te voy a dar
lo que me pides.
Te doy Dios
quieres mas
es que nunca comprenderás
a un pobre pibe.
Esas motos que van a mil
nada mas
nada mas.
Si pudieras olvidar tu mente
frente a mi, se
que tu corazón
diría que si.




[Seminare chords][Seminare cifra]
© LaCuerda.net · aviso legal · privacidad · es · en · pt · contacto