Acordes de Guitarra » S »Seru Giran » Nos veremos otra vez (Tab)

Nos veremos otra vez
Seru Giran

Letras, Acordes y Tabs para Guitarra, Bajo y Ukulele

  •    Bb        C           F
     Aunque te abraces a la luna
       Bb        C              F   Bb
     aunque te acuestes con el sol
                   C               F          Dm    Bb
     no hay mas estrellas que las que dejes brillar
                 C       F
     tendrá el cielo tu color
    
               Bb             C    F
     No estés sola en esta lluvia
               Bb          C
     no te entregues por favor
                    F               Bb
     si debes ser fuerte en estos tiempos
             F          Bb
     para resistir la decepción
                  F             Bb
     y quedará abierta mente y alma 
          C        F   Bb
    
  • A B/A E/G# C#m7 A B/A E Esus4 E 
    A           B/A           E Esus4 E 
    Aunque te abraces a la luna 
    A           B/A           E Esus4 E 
    aunque te acuestes con el sol. 
    A           B/A           G#m7            B/C# C#m7 
    No hay mas estrellas que las que dejes brillar 
    A       B/A           E Esus4 E 
    tendra el cielo tu color 
    
    E/G#   A9                  B B/A 
    no estés solo en esta lluvia 
    E/G#      A9           B  B/A 
    no te entregues por favor 
    
                  E/G#            A9 
    Si debes ser fuerte en estos tiempos 
              E/G#          A9 
    para resistir la decepcion 
               E/G#            A9 
    
  • Piano:   G#m  C#m
    
    
    
          1----------------------------0-------0-------2-----2--------------------------------
          2----------------------------2-------2------ 4-----4--------7------9-----9--------      
          3---------------------2--------------------------------------8------9--- -9--------
          4--------------2-------------------------------------------------------------------
          5--------0-------------------------------------------------------------------------
          6----------------------------------------------------------------------------------
    
    Piano:   MI   lado#mi   MI FA#  FA#RE#  SOL#  SOL#
      Graves  LA    SI  MI  
    
          1-------------------------------
          2------0-----------------------
          3------------2-----------------
          4-------------------2----------
          5------------------------------
          6------------------------------
    
  • +
    ¡Colabora con nosotros!
    Envíanos tu versión de esta canción

Letra de Nos veremos otra vez
Aunque te abraces a la luna
aunque te acuestes con el sol
no hay mas estrellas que las que dejes brillar
tendrá el cielo tu color
No estés sola en esta lluvia
no te entregues por favor
si debes ser fuerte en estos tiempos
para resistir la decepción
y quedará abierta mente y alma
yo estoy con vos
Si te hace falta quien te trate con amor
si no tenés a quien brindar tu corazón
si todo vuelve cuando más lo precisas
nos veremos otra vez
Si te hace falta.....




[Nos veremos otra vez chords][Nos veremos otra vez cifra]
© LaCuerda.net · aviso legal · privacidad · es · en · pt · contacto